Implore the Darken Sky by Heaven Shall Burn Ukulele Chords

Posted on

If you are looking for Implore the Darken Sky ukulele chords, you have come to the right site.
You can play versatile instrument Implore the Darken Sky using ukulele or guitar.
This song by Heaven Shall Burn can also be played by that instruments.
=

Implore the Darken Sky chords has rhythm and included in Whatever It May Take (2002) album.
You can also find another musical style, including jazz ukulele chords, country music ukulele chords, pop ukulele chords, world music ukulele chords, and rock ukulele chords here.

Implore the Darken Sky by Heaven Shall Burn Ukulele Chords

Song:Implore The Darken Sky
Album : Whatever It May Take
Tabbed by:Brandon Wall
Email:ze_carvingheadz@yahoo.com

Tuning:Drop C (DAFCGC)

| tremo pick
| / slide up
| slide down
| h hammer-on
| p pull-off
| ~ vibrato
| + harmonic
| . Mute note


D|-----------------------------------|
A|-----------------------------------|
F|-----------------------------------|
C|----6-4-2-1----6-7-9-7-6--| X4
G|-4-------------4-----------------|
C|-----------------------------------|

(Play each number as needed)


D|---------------------|
A|---------------------|
F|---------------------|
C|-0-4-7-0-2--4-7-0-2--|
G|-0-4-7-0-2--4-7-0-2--|
C|-0-4-7-0-2--4-7-0-2--|


D|--------------------------------------|
A|--------------------------------------|
F|--------------------------------------|
C|--------------------------------------| X4
G|-6-4----6-4----7-6-0-9-7-6--|
C|-------6-------6--------------------|

G2 (play each number as needed)


D|-------|
A|-------|
F|-------|
C|-------| X4

G|-6-7-9-|
C|-6-7-9-|

Either guitar (play as needed)
D|—–
A|—–
F|—–
C|-14–
G|-12–
C|—–


D|--------------------------------------------------------------------------|
A|7-10-14-12-9-9/109-7-10-14-14-1412/14-7-10-14-12-9-9/109-7-10-14-13-14-|
F|--------------------------------------------------------------------------|
C|--------------------------------------------------------------------------|
G|--------------------------------------------------------------------------|
C|--------------------------------------------------------------------------|

G2 (Play each number as needed)


D|-----------------|
A|-----------------|
F|-----------------|
C|-4-6-4-7-4-6-4-3-|
G|-4-6-4-7-4-6-4-3-|
C|-4-6-4-7-4-6-4-3-|

G1 & G2


D|----------------------------------------------------------------|
A|----------------------------------------------------------------|
F|----------------------------------------------------------------|
C|----------------------------------------------------------------|

G|-00000000000000000000-33333333333333333333-00000000000000000000-|
C|-00000000000000000000-33333333333333333333-00000000000000000000-|
…. …. …. …. …. …. …. …. …. …. …. ….


D|----------------------|
A|----------------------|
F|----------------------|
C|----------------------|

G|-22222222222222222222-
C|-22222222222222222222-
…. …. …. ….


D|-----------------------------------|
A|-----------------------------------|
F|-----------------------------------|
C|----6-4-2-1----6-7-9-7-6--| X2
G|-4-------------4-----------------|
C|-----------------------------------|

(Play each number as needed)


D|------------|
A|------------|
F|------------|
C|-0-4-7-0-2--|
G|-0-4-7-0-2--|
C|-0-4-7-0-2--|


D|--------------------------------------|
A|--------------------------------------|
F|--------------------------------------|
C|--------------------------------------| X4
G|-6-4----6-4----7-6-0-9-7-6--|
C|-------6-------6--------------------|

G2 (play each number as needed)


D|-------|
A|-------|
F|-------|
C|-------| X4

G|-6-7-9-|
C|-6-7-9-|

G1 & G2


D|-------------------------------------------|
A|-------------------------------------------|
F|-------------------------------------------|
C|-----66-2222-9999-222-----66-2222-9999-777-| X2
G|-444------------------444------------------|
C|-------------------------------------------|

G1 & G2


D|----------------------------------------------------------------|
A|----------------------------------------------------------------|
F|----------------------------------------------------------------|
C|----------------------------------------------------------------|

G|-00000000000000000000-22222222222222222222-44444444444444444444-|
C|-00000000000000000000-22222222222222222222-44444444444444444444-|
…. …. …. …. …. …. …. …. …. …. …. ….


D|----------------------|
A|----------------------|
F|----------------------|
C|----------------------|

G|-00000000000000000000-
C|-00000000000000000000-
…. …. …. ….

G1 & G2


D|-------------------------------------------|
A|-------------------------------------------|
F|-------------------------------------------|
C|-----66-2222-9999-222-----66-2222-9999-777-| X2
G|-444------------------444------------------|
C|-------------------------------------------|


D|----------------------------------------------|
A|------------4-2-------------------------------|
F|-4-3-1--3-4-----4-3-4-6-3-1---1-3-4-3-1-3-|
C|----------------------------4-----------------| X4
G|----------------------------------------------|
C|----------------------------------------------|


D|----------|
A|----------|
F|----------|
C|-9-8-6--4-| X4
G|-9-8-6--4-|
C|-9-8-6--4-|

Either guitar (play as needed)
D|—–
A|—–
F|—–
C|-14–
G|-12–
C|—–


D|--------------------------------------------------------------------------|
A|7-10-14-12-9-9/109-7-10-14-14-1412/14-7-10-14-12-9-9/109-7-10-14-13-14-|
F|--------------------------------------------------------------------------|
C|--------------------------------------------------------------------------|
G|--------------------------------------------------------------------------|
C|--------------------------------------------------------------------------|

G2 (Play each number as needed)


D|-----------------|
A|-----------------|
F|-----------------|
C|-4-6-4-7-4-6-4-3-|
G|-4-6-4-7-4-6-4-3-|
C|-4-6-4-7-4-6-4-3-|


D|--------------------------------------|
A|--------------------------------------|
F|--------------------------------------|
C|--------------------------------------| X4
G|-6-4----6-4----7-6-0-9-7-6--|
C|-------6-------6--------------------|

G2 (play each number as needed)


D|-------|
A|-------|
F|-------|
C|-------| X4

G|-6-7-9-|
C|-6-7-9-|

G1 (NOTE: only one while G2 playsriff)


D|-------------------------------------------|
A|-------------------------------------------|
F|-------------------------------------------|
C|-----66-2222-9999-222-----66-2222-9999-777-| X2
G|-444------------------444------------------|
C|-------------------------------------------|


D|----------------------------------------------------------------|
A|----------------------------------------------------------------|
F|----------------------------------------------------------------|
C|----------------------------------------------------------------|

G|-00000000000000000000-22222222222222222222-44444444444444444444-|
C|-00000000000000000000-22222222222222222222-44444444444444444444-|
…. …. …. …. …. …. …. …. …. …. …. ….


D|----------------------|
A|----------------------|
F|----------------------|
C|----------------------|

G|-00000000000000000000-
C|-00000000000000000000-
…. …. …. ….

G1 & G2 (then both play)


D|----------------------------------------------------------------|
A|----------------------------------------------------------------|
F|----------------------------------------------------------------|
C|----------------------------------------------------------------|

G|-00000000000000000000-22222222222222222222-44444444444444444444-|
C|-00000000000000000000-22222222222222222222-44444444444444444444-|
…. …. …. …. …. …. …. …. …. …. …. ….


D|----------------------|
A|----------------------|
F|----------------------|
C|----------------------|

G|-00000000000000000000-
C|-00000000000000000000-
…. …. …. ….

BOth play this until song ends:


D|-------------------------------------------|
A|-------------------------------------------|
F|-------------------------------------------|
C|-----66-2222-9999-222-----66-2222-9999-777-| X2
G|-444------------------444------------------|
C|-------------------------------------------|

_END_

To play the most songs, including Implore the Darken Sky by Heaven Shall Burn by ukulele, the most crucial basic ukulele chords to learn are C chord, D chord, G chord, and Em chord.
These set you up to play a a lot of songs, and each of them is easy to master.

Leave a Reply

Your email address will not be published.