Ink and Lead by Hot Water Music Ukulele Chords

Posted on

If you are searching for Ink and Lead ukulele chords, you have visit to the right place.
You can play versatile instrument Ink and Lead using ukulele or guitar.
This song by Hot Water Music can also be played by that instruments.
=

Ink and Lead chords has rhythm and included in The New What Next (2004) album.
You can also find other musical style, including jazz ukulele chords, country music ukulele chords, pop ukulele chords, world music ukulele chords, and rock ukulele chords here.

Ink and Lead by Hot Water Music Ukulele Chords


-------------------------------------------------------------------------------

Ink and Lead – Hot Water Music


-------------------------------------------------------------------------------

Tabbed by: Brian C.
Email: ReginaldPudding@gmail.com

Tuning:EADGBe

Guitar 1
Intro [0:00]


e|----------------------------| |----------------|
B|----------------------------| |---8--7-----7---|
G|------0------0-----0--------| |---------7------|
D|----4------5-------7--------| 4X |----------------|
A|--2------3---------5--------| |----------------|
E|----------------------------| |----------------|

Verse [0:14]


e|---------------------------------------------------------------------------|
B|---------------------------------------------------------------------------|
G|------0------0-----0------------0------0-----0---------4--0-----4----------|
D|----4------5-------7----------4------5-------7---------------4-------------|
A|--2------3---------5--------2------3---------5-----------------------------|
E|---------------------------------------------------------------------------|
e|---------------------------------------------------------------------------|
B|-------------------------------------------------------8--7-----7----------|
G|------0------0-----0------------0------0-----0---------------7-------------|
D|----4------5-------7----------4------5-------7-----------------------------|
A|--2------3---------5--------2------3---------5-----------------------------|
E|---------------------------------------------------------------------------|

PRE-CHORUS [0:55]


e|----------------------------------------|
B|----------------------------------------|
G|--999999999999999999999999--11111111----|
D|----------------------------------------|
A|--777777777777777777777777--99999999----|
E|----------------------------------------|
e|---------------------------------------------------------------------------|
B|---------------------------------------------------------------------------|
G|--9999999999999999--99-77-99-77-99-1212-9999-------------------------------|
D|---------------------------------------------------------------------------|
A|--7777777777777777--77-55-77-55-77-1010-7777-------------------------------|
E|---------------------------------------------------------------------------|
e|---------------------------------------------------------------------------|
B|---------------------------------------------------------------------------|
G|--9999999999999999--7777777777777777--9999999999999999--1212121212121212---|
D|---------------------------------------------------------------------------|
A|--7777777777777777--5555555555555555--7777777777777777--1010101010101010---|
E|---------------------------------------------------------------------------|

VERSE [1:23]

PRE-CHORUS [1:51]

CHORUS [2:19]


e|----------------------------------------------------------------------------|
B|----------------------------------------------------------------------------|
G|----------------------------------------------------------------------------|
D|--7777777777777777--1010101010101010--5555555555555555--5555555555555555----|
A|--7777777777777777--1010101010101010--5555555555555555--5555555555555555----|
E|--5555555555555555--8888888888888888--3333333333333333--3333333333333333----|
e|----------------------------------------------------------------------------|
B|----------------------------------------------------------------------------|
G|----------------------------------------------------------------------------|
D|--7777777777777777--1010101010101010--5555555555555555--5555555555555555----|
A|--7777777777777777--1010101010101010--5555555555555555--5555555555555555----|
E|--5555555555555555--8888888888888888--3333333333333333--2222222222222222----|

PRE-CHORUS [2:54]

OUTRO [3:21]


e|---------------------------------------------------------------------------|
B|---------------------------------------------------------------------------|
G|---------------------------------------------------------------------------|
D|--------------------7777777777777777--5555555555555555--7777777777777777---|
A|--2222222222222222--5555555555555555--3333333333333333--5555555555555555---|
E|--0000000000000000---------------------------------------------------------|

Guitar 2

Verse [0:14]


e|---------------------------------------------------------------------------|
B|---------------------------------------------------------------------------|
G|---------------------------------------------------------------------------|
D|-444--999--7777777777--444--555--------------------------------------------|
A|-222--777--5555555555--222--333--555--7777777------------------------------|
E|---------------------------------333--5555555------------------------------|
e|----------------------------------------|
B|----------------------------------------|
G|-----0------0-----0---------------------|
D|---4------5-----5-----------------------|
A|-2------3-------------------------------|
E|--------------3-----5-------------------|

PRE-CHORUS [0:55]


e|------------------------------------------------------------------------|
B|-----------8-5-5/7--7--------------------------------------------------|
G|------4h7----------------4/7-2--2--9-999-7--0-------9-999-7-----------|
D|--5h7-----------------------------------------------------------5---7---|
A|------------------------------------------------------------------------|
E|------------------------------------------------------------------------|
e|------------------------------------------------------------------------|
B|-----------8-5-5/7--7--------------------------------------------------|
G|------4h7----------------4/7-2--2--9-999-7--0--------11----0----------|
D|--5h7-------------------------------------------------------------------|
A|------------------------------------------------------------------------|
E|------------------------------------------------------------------------|

VERSE [1:23]

PRE-CHORUS [1:51]

CHORUS [2:19]


e|-------10-7-------7---------------------|
B|--7h8--------7h8----8--7h8-10-----------|
G|----------------------------------------|
D|----------------------------------------|
A|----------------------------------------|
E|----------------------------------------|

PRE-CHORUS [2:54]

OUTRO [3:21]


e|-------10-7-------7---------------------|
B|--7h8--------7h8----8--7h8-10-----------|
G|----------------------------------------|
D|----------------------------------------|
A|----------------------------------------|
E|----------------------------------------|

end on this


e|-------10-7-------7---------------------|
B|--7h8--------7h8----8-8/108------------|
G|----------------------------------------|
D|----------------------------------------|
A|----------------------------------------|
E|----------------------------------------|

| / slide up
| slide down
| h hammer-on
| p pull-off
| ~ vibrato
| + harmonic
| x Mute note

To play the this songs, including Ink and Lead by Hot Water Music by ukulele, the most important basic ukulele chords to learn are C chord, D chord, G chord, and Em chord.
These set you up to play a a lot of songs, and each of them is easy to master.

Leave a Reply

Your email address will not be published.