Invisible by Everclear Ukulele Chords

Posted on

If you are looking for Invisible ukulele chords, you have visit to the right place.
You can play versatile instrument Invisible using ukulele or guitar.
This song by Everclear can also be played by that instruments.
=

Invisible chords has rhythm and included in World of Noise (1993) album.
You can also find another musical style, including jazz ukulele chords, country music ukulele chords, pop ukulele chords, world music ukulele chords, and rock ukulele chords here.

Invisible by Everclear Ukulele Chords


As recorded by Everclear on “World of Noise” LP
Tabbed by Jason Pan (balaka@alphalink.com.au)

BASS


G|-----------------------------------------------|
D|-2h4-4-4p2-2-2h4-4-4p2-2-2h4-4-4p2-2h4-4-4p2---|
A|-----------------------------------------------|
E|-----------------------------------------------|

|GUITAR |


e|-----------------------------------------------|
B|-----------------------------------------------|
G|-----------------------9-9-9-9-9-9-9-9-9-9-9-9-|
D|-------------------------(tremelo pick this----|
A|--------------------------------note)----------|
E|-----------------------------------------------|


e|------------------------5----------|
B|------------------------5----------|
G|------------------------6----------|
D|--/7-7-7---/7-8-9--/7-7-7---/7-8-9-|
A|--/7-7-7---/7-8-9--/7-7-7---/7-8-9-|
E|-2/5-5-5-2/5-6-72/5-5-5-2/5-6-7-|


e|------------------------------------|
B|------------------------------------|
G|------------------------------------|
D|--/7-7-7---/7-8-9--/7-7-7---/7-8-9--|
A|--/7-7-7---/7-8-9--/7-7-7---/7-8-9--|
E|-2/5-5-5-2/5-6-72/5-5-5-2/5-6-7--|

| |


e|------------------------------------|
B|---------------------------12-12-12-|
G|------------------------------------|
D|------------------------------------|
A|------------------------------------|
E|------------------------------------|


e|-------------------------------------|
B|-------------------------------------|
G|-------------------------------------|
D|--/7-7-7---/7-8-9--/7-7-7---/7-8-9---|
A|--/7-7-7---/7-8-9--/7-7-7---/7-8-9---|
E|-2/5-5-5-2/5-6-72/5-5-5-2/5-6-7---|

| |


e|-------------------------------------|
B|12-12-12-11-11-11-----------------12-|
G|-------------------9-9-9h11-11-11----|
D|-------------------------------------|
A|-------------------------------------|
E|-------------------------------------|


e|-------------------------------------|
B|-------------------------------------|
G|-------------------------------------|
D|--/7-7-7---/7-8-9--/7-7-7---/7-8-9---|
A|--/7-7-7---/7-8-9--/7-7-7---/7-8-9---|
E|-2/5-5-5-2/5-6-72/5-5-5-2/5-6-7---|

| |


e|-------------------------------------|
B|-12-12h14p11-11-11-------------------|
G|-------------------9-11-9-8-9-8--6~--|
D|-------------------------------------|
A|-------------------------------------|
E|-------------------------------------|


e|-------------------------------------| x4
B|-------------------------------------|
G|-------------------------------------|
D|--/7-7-7---/7-8-9--/7-7-7---/7-8-9---|
A|--/7-7-7---/7-8-9--/7-7-7---/7-8-9---|
E|-2/5-5-5-2/5-6-72/5-5-5-2/5-6-7---|

I will live. I will live.
Maybe for a year or two. Maybe for a year.
I will die. Yes I will die.
I can rest secure in that.


e|-0---------------5-------0------------------------------------------|x2
B|-0---------------7-------0------------------------------------------|
G|-1---------------7-------1------------------------------------------|
D|-2---------------7-------2---------/7-7-7---/7-8-9--/7-7-7---/7-8-9-|
A|-2---------------5-------2---------/7-7-7---/7-8-9--/7-7-7---/7-8-9-|
E|-0-----------------------0--------2/5-5-5-2/5-6-72/5-5-5-2/5-6-7-|

Yeah, I am awful sure that this thing ain’t no accident.
I just can’t believe that AIDS is just some act of God.


e|-------------------------------------| x2
B|-------------------------------------|
G|-------------------------------------|
D|--/7-7-7---/7-8-9--/7-7-7---/7-8-9---|
A|--/7-7-7---/7-8-9--/7-7-7---/7-8-9---|
E|-2/5-5-5-2/5-6-72/5-5-5-2/5-6-7---|

pm……… ……..
I will reach for you. I will reach my hand.
No one will reach for me. No one will touch my skin.


e|-------------------------------------| x1
B|-------------------------------------|
G|-------------------------------------|
D|--/7-7-7---/7-8-9--/7-7-7---/7-8-9---|
A|--/7-7-7---/7-8-9--/7-7-7---/7-8-9---|
E|-2/5-5-5-2/5-6-72/5-5-5-2/5-6-7---|

pm………
I will accept. I will accept my pain.


e|-------------------------------------| x1
B|-------------------------------------|
G|-------------------------------------|
D|--/7-7-7---/7-8-9--/7-7-7---/7-8-9---|
A|--/7-7-7---/7-8-9--/7-7-7---/7-8-9---|
E|-2/5-5-5-2/5-6-72/5-5-5-2/5-6-7---|

I don’t deserve to die like this. No one deserves to die like this.


e|-0---------------5-------0------------------------------------------|x2
B|-0---------------7-------0------------------------------------------|
G|-1---------------7-------1------------------------------------------|
D|-2---------------7-------2---------/7-7-7---/7-8-9--/7-7-7---/7-8-9-|
A|-2---------------5-------2---------/7-7-7---/7-8-9--/7-7-7---/7-8-9-|
E|-0-----------------------0--------2/5-5-5-2/5-6-72/5-5-5-2/5-6-7-|

Sometimes I get so mad that I just want to break the world.
Sometimes I get so mad that I just want to break the world.
Break the world


e|---------------------------------------------------------------------|
B|---------------------------------------------------------------------|
G|---------------------------------------------------------------------|
D|--/7-7-7---/7-8-9--/7-7-7---/7-8-9--/7-7-7---/7-8-9--/7-7-7---/7-8-9-|
A|--/7-7-7---/7-8-9--/7-7-7---/7-8-9--/7-7-7---/7-8-9--/7-7-7---/7-8-9-|
E|-2/5-5-5-2/5-6-72/5-5-5-2/5-6-7-2/5-5-5-2/5-6-72/5-5-5-2/5-6-7-|

| |


e|---------------------------------------------------------------------|
B|---------------------------------------------------------------------|
G|-9-9-9-9-9-9-9-9-9-8-8-8-8-8-8-8-8-10-10-10-10-10-10-9-9-9-9-9-9-9-9-|
D|---------------------------------------------------------------------|
A|---------------------------------------------------------------------|
E|---------------------------------------------------------------------|


e|---------------------------------------------------------------------|
B|---------------------------------------------------------------------|
G|---------------------------------------------------------------------|
D|--/7-7-7---/7-8-9--/7-7-7---/7-8-9--/7-7-7---/7-8-9--/7-7-7---/7-8-9-|
A|--/7-7-7---/7-8-9--/7-7-7---/7-8-9--/7-7-7---/7-8-9--/7-7-7---/7-8-9-|
E|-2/5-5-5-2/5-6-72/5-5-5-2/5-6-7-2/5-5-5-2/5-6-72/5-5-5-2/5-6-7-|

| |


e|----------------------------------13-14-14-14-14--------20-19----19--|
B|-11-14-11-14-11-14-15-14-11-14-15-----------------------------19-----|
G|---------------------------------------------------------------------|
D|---------------------------------------------------------------------|
A|---------------------------------------------------------------------|
E|---------------------------------------------------------------------|



e|----------------------------------2-------------0---------------2----|
B|----------------------------------4-------------2---------------2----|
G|----------------------------------4-------------2---------------3----|
D|----------------------------------4-------------2---------------4----|
A|----------------------------------2-------------0---------------4----|
E|----------------------------------------------------------------2----|

| |


e|-----------19----19----19b-------------------------------------------|
B|--------19----19----19-----------------------------------------------|
G|----------------------------------5--5b-5p4-2-----------2-4b5r4------|
D|----------------------------------------------4-2---2h4--------------|
A|---------------------------------------------------------------------|
E|---------------------------------------------------------------------|

BASS


G|-------------------------------------| x4
D|-------------------------------------|
A|-------------------------------------|
E|-2/5-5-5-2/5-6-72/5-5-5-2/5-6-7---|

(no lyrics first two times)
I will not be denied. I will not be ignored.
No I am not invisible anymore


e|-------------------------------------| x2
B|-------------------------------------|
G|-------------------------------------|
D|--/7-7-7---/7-8-9--/7-7-7---/7-8-9---|
A|--/7-7-7---/7-8-9--/7-7-7---/7-8-9---|
E|-2/5-5-5-2/5-6-72/5-5-5-2/5-6-7---|

pm……… ……..
I will not be denied. I will not be ignored.
I’m real. I won’t go away. I’m not invisible anymore.


e|-0---------------5-------0------------------------------------------|x2
B|-0---------------7-------0------------------------------------------|
G|-1---------------7-------1------------------------------------------|
D|-2---------------7-------2---------/7-7-7---/7-8-9--/7-7-7---/7-8-9-|
A|-2---------------5-------2---------/7-7-7---/7-8-9--/7-7-7---/7-8-9-|
E|-0-----------------------0--------2/5-5-5-2/5-6-72/5-5-5-2/5-6-7-|

I get so mad that I just want to break the world.
I get so mad that I just want to break the world. Break the world


e|-------------------------------------| x2
B|-------------------------------------|
G|-------------------------------------|
D|--/7-7-7---/7-8-9--/7-7-7---/7-8-9---|
A|--/7-7-7---/7-8-9--/7-7-7---/7-8-9---|
E|-2/5-5-5-2/5-6-72/5-5-5-2/5-6-7---|

Break the World. Break the World.
Break the World. Break the World.


e|----------------------------------------------------------------------|
B|----------------------------------------------------------------------|
G|----------------------------------------------------------------------|
D|--/7-7-7---/7-8-9--/7-7-7---/7-8-9--/7-7-7---/7-8-9--/7-7-7---/7-8-9--|
A|--/7-7-7---/7-8-9--/7-7-7---/7-8-9--/7-7-7---/7-8-9--/7-7-7---/7-8-9--|
E|-2/5-5-5-2/5-6-72/5-5-5-2/5-6-7-2/5-5-5-2/5-6-72/5-5-5-2/5-6-7--|

| |


e|----------------------------------------------------------------------|
B|-14-14-14-14-14-14-13-13-13-13-13-13-14-14-14-14-14-17-17-17-17-17-17-|
G|-15-15-15-15-15-15-14-14-14-14-14-14-15-15-15-15-15-18-18-18-18-18-18-|
D|----------------------------------------------------------------------|
A|----------------------------------------------------------------------|
E|----------------------------------------------------------------------|


e|------------------------------------|
B|------------------------------------|
G|------------------------------------|
D|--/7-7-7---/7-8-9--/7-7-7---/7-8-9--|
A|--/7-7-7---/7-8-9--/7-7-7---/7-8-9--|
E|-2/5-5-5-2/5-6-72/5-5-5-2/5-6-7--|

| |


e|-------------17-17h19p17------------|
B|-17-17-17-19-------------19---------|
G|----18------------------------------|
D|------------------------------------|
A|------------------------------------|
E|------------------------------------|

BASS


G|-----------------------------------------------|
D|-2h4-4-4p2-2-2h4-4-4p2-2-2h4-4-4p2-2h4-4-4p2---|
A|-----------------------------------------------|
E|-----------------------------------------------|

|GUITAR |


e|-----------------------------------------------|
B|-----------------------------------------------|
G|-----------------------9-9-9-9-9-9-9-9-9-9-9-9-|
D|-------------------------(tremelo pick this----|
A|--------------------------------note)----------|
E|-----------------------------------------------|


e|-------------------|
B|-------------------|
G|-------------------|
D|--/7-7-7---/7-8-9-|
A|--/7-7-7---/7-8-9-|
E|-2/5-5-5-2/5-6-7-|

JASON’S EVERCLEAR TABS – http://members.tripod.com/~panec/

To play the most songs, including Invisible by Everclear by ukulele, the most important basic ukulele chords to learn are C chord, D chord, G chord, and Em chord.
These set you up to play a ton of songs, and each of them is easy to master.

Leave a Reply

Your email address will not be published.