It’s About Time by Barcelona Ukulele Chords

Posted on

If you are looking for It’s About Time ukulele chords, you already visit to the best site.
You can play versatile instrument It’s About Time using ukulele or guitar.
This song by Barcelona can also be played by that instruments.
=

It’s About Time chords has rhythm and included in album.
You can also find other musical style, including jazz ukulele chords, country music ukulele chords, pop ukulele chords, world music ukulele chords, and rock ukulele chords here.

It’s About Time by Barcelona Ukulele Chords


?It?s About Time? by Barcelona

[E/G#]


E-------4------2------0------2--------4-------0--------------|
B-------5------4------2------2--------5-------0--------------|
G-------6------4------2------2--------4-------1--------------|
D-------6------4------2------4--------6-------2--------------|
A-------4------2------0------4--------7-------2--------------|
E-------x------x------x------2--------4-------0--------------|

Intro: C#m B A (x2)

Intro Riff:


E------------------16161616--1414?11p12h11-------------------|
B---14?12/16---------------------------------12/14-----------|
G------------------------------------------------------------|
D------------------------------------------------------------|
A------------------------------------------------------------|
E------------------------------------------------------------|

Verse
One more day down these stairs
His room is cold now and it hurts like hell
He holds tight, he stares
It?s almost over and it?s running through his head
[E/G#] [E/G#]
They don?t know me, they don?t know more than I show

Chorus
She?s walking up to him so slowly
It?s about time, it?s about time to fly away, but wait
This one is different cause she?s lonely
Fold your wings, you?ll need them more one day

Verse

Chorus

Bridge
There?ve been to many times when I?ve drowned you with these perfect lines
And you?ve heard me say that I can cure you
This morning I woke up with this overwhelming fear of love
And I?m not sure if I can resurrect you

Bridge Riff: (Tremolo Picked w/ Reverb and Delay)


E---12-11-16-11-(x2)---12-14-16-17-14----12-11-16-11-(x2)---12-14-16-17-19-20/14-|
B--------------------------------------------------------------------------------|
G--------------------------------------------------------------------------------|
D--------------------------------------------------------------------------------|
A--------------------------------------------------------------------------------|
E--------------------------------------------------------------------------------|

Bridge Chords: A C#m E B

Chorus: (w/ soft ending)

To play the most songs, including It’s About Time by Barcelona by ukulele, the most crucial basic ukulele chords to learn are C chord, D chord, G chord, and Em chord.
These set you up to play a ton of songs, and each of them is easy to learn.

Leave a Reply

Your email address will not be published.