Jam Side Down by Status Quo Ukulele Chords

Posted on

If you are searching for Jam Side Down ukulele chords, you have come to the best place.
You can play versatile instrument Jam Side Down using ukulele or guitar.
This song by Status Quo can also be played by that instruments.
=

Jam Side Down chords has rhythm and included in Heavy Traffic (2002) album.
You can also get other musical style, including jazz ukulele chords, country music ukulele chords, pop ukulele chords, world music ukulele chords, and rock ukulele chords here.

Jam Side Down by Status Quo Ukulele Chords


status quo
Jam Side Down
heavy traffic

Legend


------

h hammer-on
p pull-off
b bend
r bend release
/ slide up
slide down
~ vibrato

intro


E|-------------------|---------------------|-------------------|---------
B|-------------------|---------------------|-------------------|---------
G|-2--1--2---2--1--2-|-2--1--2--4--2--1--2-|-2--1--2---2--1--2-|-2--1--2-
D|-------------------|---------------------|-------------------|---------
A|-------------------|---------------------|-------------------|---------
E|-------------------|---------------------|-------------------|---------

What’s a boy to do when faith is cruel
Keep on keeping on try to bend the rules
I’ll do anything to find a way to your heart
I got a rabbits foot but luck don’t come
Got my fingers crossed and they go numb
I can hold my breath and wish for you
I need a miracle to make it thru

(Chorus)
Life is hard
I need a remedy
For the way I feel
My bread keeps landing Jam Side Down
Say you’ll be there to spread love around

(Main Riff)

I was sweet on you that’s how I felt
Got a butter heart you made it melt
Like a big eyed kid in a candy store
I had a little sugar now I want some more

(Chorus)
Life is hard
I need a remedy
For the way I feel
My bread keeps landing Jam Side Down
Say you’ll be there to spread love around

(Solo)


Chords : D - E - A - D - D - E - A - D
E|-----------------------------------------------------------------------
B|----------------5-----------------------------------------------------
G|--/7--6--4---6------2-------------------9----9-10----------------------
D|-------------------------11-11-11----11---9------9----11~~------------
A|----------------------------------12---------------11------------------
E|-----------------------------------------------------------------------

My bread keeps landing Jam Side Down
Say you’ll be there to spread love around

(Bridge)
You are my destiny
You bring out the best in me..you
You make me feel so lucky

So lucky
D A E Play these as single notes on 6th string
To have you |


|---------|

And I need you Yeah I need you

Repeat chorus and main riff untill the end. You’ll manage

Watch it…..after the instrumental and and a few bars after
that the use a G-chord

Say you’ll be there to spread love around

To play the this songs, including Jam Side Down by Status Quo by ukulele, the most crucial basic ukulele chords to learn are C chord, D chord, G chord, and Em chord.
These set you up to play a ton of songs, and each of them is easy to learn.

Gravatar Image
Like to play Ukulele and Sudoku Game

Leave a Reply

Your email address will not be published. Required fields are marked *