Jewels and Bullets by You Am I Ukulele Chords

Posted on

If you are looking for Jewels and Bullets ukulele chords, you have come to the right site.
You can play versatile instrument Jewels and Bullets using ukulele or guitar.
This song by You Am I can also be played by that instruments.
=

Jewels and Bullets chords has rhythm and included in Hi Fi Way (1995) album.
You can also get another musical style, including jazz ukulele chords, country music ukulele chords, pop ukulele chords, world music ukulele chords, and rock ukulele chords here.

Jewels and Bullets by You Am I Ukulele Chords

(from the long gone You Am I Central.com)

CAPO 2


---------0-----0----|
--3------0-----0----|
--0------0-----0----|
--0------0-----0----|
--3---7--7--3--3----|
------5--5--1--1----|

LINK (relative to capo)


-----------|
-----------|
-----------|
-----------|
5--7--5----|
3--5--3----|

VERSE 1

Every word they sling you hits like your folks have never been kind
And the jewels on your apron could use some calamine
Cadd9 A (link)
All the girls and pink faced boys are punching joining the line

CHORUS

The old shoe that’d been lived in
A5 A (link)
And a towel you got dry in
And there’s a drink you can drown in
So choose a blanket to die in

VERSE 2

Spill a drink on his front and sells the plans for a morning high rise
Cadd9 A (link)
‘Coz there’s only so much of string that pay slips can pull and unwind

CHORUS

The old shoe that’d been lived in
A5 A (link)
And a towel you got dry in
And there’s a drink you can drown in
So choose a blanket to die in

SOLO (Over verse chords, relative to capo)

(All harmonics) A


---------------------------------------------------------|
---------------------------------------------------------|
---------7-7-7---------7-7-7---------7-7-7---------7-7-7-|
------7--------------7-------------7-------------7-------|
-7-7-----------7-7-7---------7-7-7---------7-7-7---------|
---------------------------------------------------------|

(x2)

(REPEAT CHORUS CHORDS)

Check out the towel you can die in

A (Then bass and drums, pick scrpe into;)

OUTRO


------------------------------------------|
------------------------------------------|
------------------------------------------|
------------------------------------------|
5-7-7--5-7-10-7-7--5-7-7--5-7-10-12-12----|
3-5-5--3-5-8--5-5--3-5-5--3-5-8--10-10----|

(x2, then breakdown, repeat again)

End on A

To play the most songs, including Jewels and Bullets by You Am I by ukulele, the most crucial basic ukulele chords to learn are C chord, D chord, G chord, and Em chord.
These set you up to play a ton of songs, and each of them is easy to learn.

Leave a Reply

Your email address will not be published.