Juliette by Hollerado Ukulele Chords

Posted on

If you are looking for Juliette ukulele chords, you have come to the best place.
You can play versatile instrument Juliette using ukulele or guitar.
This song by Hollerado can also be played by that instruments.
=

Juliette chords has rhythm and included in Record in a Bag (2009) album.
You can also get another musical genres, including jazz ukulele chords, country music ukulele chords, pop ukulele chords, world music ukulele chords, and rock ukulele chords here.

Juliette by Hollerado Ukulele Chords

Intro (Also Chorus):


e|------x-x----------x-x---x-x---------|-x-x-2----x-x----------------------------|
B|-3-3--x-x----2--2--x-x-3-x-x-2--2--2-|-x-x-3-3--x-x---2--2--------2-x-x-3------|
G|-2-4--x-x----2--2--x-x-4-x-x-2--2--2-|-x-x-2-4--x-x---2--2--x-----2-x-x-4--1-1-|
D|-0-4--x-x-4--2--2--x-x-4-x-x-4--2--2-|-x-x-0-4--x-x-4-2--2--x-2/4-2-x-x-4--2-2-|
A|---2--x-x-4--0--0--x-x-2-x-x-4--0--0-|-x-x---2--x-x-4-0--0--0-2/4-0-x-x-2--2-2-|
E|------x-x-2--------x-x---x-x-2-------|-x-x------x-x-2---------0/2----------0-0-|


e|------x-x----------x-x---x-x---------|-x-x-2----x-x----------------------------|
B|-3-3--x-x----2--2--x-x-3-x-x-2--2--2-|-x-x-3-3--x-x---2--2--------2-x-x-3------|
G|-2-4--x-x----2--2--x-x-4-x-x-2--2--2-|-x-x-2-4--x-x---2--2--x-----2-x-x-4------|
D|-0-4--x-x-4--2--2--x-x-4-x-x-4--2--2-|-x-x-0-4--x-x-4-2--2--x-2/4-2-x-x-4-4-2-2|
A|---2--x-x-4--0--0--x-x-2-x-x-4--0--0-|-x-x---2--x-x-4-0--0--x-2/4-0-x-x-2-4-2-2|
E|------x-x-2--------x-x---x-x-2-------|-x-x------x-x-2---------0/2---------2-0-0|

Pre-verse: A A Bm/A A A


e|---------------------------------------------------|
B|---------2-------------2-------------3---------2-2-|
G|---------2-------------2-------------4---------2-2-|
D|---------2-------------2-------------4---------2-2-| Instrumental 1x
A|-0-0-0-0---0-0-0-0-0-0---0-0-0-0-0-0---0-0-0-0-----|
E|---------------------------------------------------|

Verse:
[Bm/A] [Bm/A]


e|---------------------------------------------------|
B|---------3-------------2-------------3---------2-2-|
G|---------4-------------2-------------4---------2-2-|
D|---------4-------------2-------------4---------2-2-|
A|-0-0-0-0---0-0-0-0-0-0---0-0-0-0-0-0---0-0-0-0-----|
E|---------------------------------------------------|

She’s got houseplants, To keep her company.

[Bm/A]


e|-----------------------------------------------------|
B|---------3-------------2--------------2----------0-0-|
G|---------4-------------2--------------2----------1-1-|
D|---------4-------------2--------------4----------2-2-|
A|-0-0-0-0---0-0-0-0-0-0----0-0---------4----------2-2-|
E|------------------------------2-2-2-2----2-2-0-0-----|

I bought her a goldfish She named it after me.

[Bm/A]


e|----------------------------------------------------|
B|---------3-------------2-------------3----------2-2-|
G|---------4-------------2-------------4----------2-2-|
D|---------4-------------2-------------4----------2-2-|
A|-2-2-2-2---2-2-0-0-0-0---0-0-2-2-2-2----2-2-0-0-----|
E|----------------------------------------------------|

We look at old photographs, Of lovers come and gone


e|----------------------------------------------------|
B|---------3-------------2-------------2----------0-0-|
G|---------4-------------2-------------2----------1-1-|
D|---------4-------------2-------------4----------2-2-|
A|-2-2-2-2---2-2-0-0-0-0---0-0---------2----------2-2-|
E|-----------------------------2-2-2-2---2-2-0-0--0-0-|

Ask her if it makes her sad She says “son you’ve got so much to learn.”

Chorus x2


e|------x-x----------x-x---x-x---------|-x-x-2----x-x----------------------------|
B|-3-3--x-x----2--2--x-x-3-x-x-2--2--2-|-x-x-3-3--x-x---2--2--------2-x-x-3------|
G|-2-4--x-x----2--2--x-x-4-x-x-2--2--2-|-x-x-2-4--x-x---2--2--x-----2-x-x-4------|
D|-0-4--x-x-4--2--2--x-x-4-x-x-4--2--2-|-x-x-0-4--x-x-4-2--2--x-2/4-2-x-x-4-4-2-2|
A|---2--x-x-4--0--0--x-x-2-x-x-4--0--0-|-x-x---2--x-x-4-0--0--x-2/4-0-x-x-2-4-2-2|
E|------x-x-2--------x-x---x-x-2-------|-x-x------x-x-2---------0/2---------2-0-0|

Juliette Love the life that you have kept Juliette Smiling on your dying bed
Juliette You’ve got a grace about you yet Juliette Smoking her last cigarette

Guitar Fill:


e|-----------------------------------------------------------|
B|-3-3-3-3-2-2---3-3-3-3-2----3-3-3-3-2-2--(3-3-3-3-3/5-2)---|
G|-2-2-2-2-2-2---4-4-4-4-2-2--2-2-2-2-2-2---4-4-4-4-4/6-2----|
D|-------------------------2---------------------------------|
A|-----------------------------------------------------------|
E|-----------------------------------------------------------|

Verse
3 is tea time, she puts on patsy cline
Cuts the crust off sandwiches and mentions how she don’t mind dying
Tells stories about Pearl and Earl – Best friends that she once had
We do the dishes then she says it’s time for bed

Chorus
Juliette Love the life that you have kept Juliette Smiling on your dying bed
Juliette You’ve got a grace about you yet Juliette Smoking her last cigarette


e|-----------------------------------------------------------|
B|-3-3-3-3-2-2---3-3-3-3-2----3-3-3-3-2-2--(3-3-3-3-3/5-2)---|
G|-2-2-2-2-2-2---4-4-4-4-2-2--2-2-2-2-2-2---4-4-4-4-4/6-2----|
D|-------------------------2---------------------------------|
A|-----------------------------------------------------------|
E|-----------------------------------------------------------|
e|-----------------------------------------------------------|
B|-3-3-3-3-2-2---3-3-3-3-2----3-3-3-3-2-2--------------------|
G|-2-2-2-2-2-2---4-4-4-4-2-2--2-2-2-2-2-2---4-4-4-4-4-2------|
D|-------------------------2----------------------------4----|
A|-----------------------------------------------------------|
E|-----------------------------------------------------------|

Instrumental:


e|---4-4----5-5----4-4----5-5----4-4----5-5------5--------0--0--|
B|---5-5----7-5----5-5----7-5----5-5----7-5------5--5-----0--3--|
G|---6-5----7-7----6-5----7-7----6-5----7-7---6--6--------1--1--|
D|--------------------------------------------7--------2--------|
A|--------------------------------------------7--------2--------|
E|--------------------------------------------5--------0--------|

Pause (~15 secs) then Intro

Verse: (with Chorus guitar part)
We ate ice cream last night before she slept
No plans for breakfast except to read the note she left
Grey and white skies – That day was a blur for me
She made me promise not to cry, so here is a drink – I drink to thee

Chorus, then end with Guitar Fill 2x

To play the this songs, including Juliette by Hollerado by ukulele, the most important basic ukulele chords to learn are C chord, D chord, G chord, and Em chord.
These set you up to play a ton of songs, and each of them is easy to master.

Leave a Reply

Your email address will not be published.