Just My Luck by Dawes Ukulele Chords

Posted on

If you are searching for Just My Luck ukulele chords, you already come to the best site.
You can play versatile instrument Just My Luck using ukulele or guitar.
This song by Dawes can also be played by that instruments.
=

Just My Luck chords has rhythm and included in Stories Don’t End (2013) album.
You can also get other musical style, including jazz ukulele chords, country music ukulele chords, pop ukulele chords, world music ukulele chords, and rock ukulele chords here.

Just My Luck by Dawes Ukulele Chords


-------------------------------------------------------------------------------

JUST MY LUCK – Dawes


-------------------------------------------------------------------------------

Tabbed by: Macheeoo (in cooperation with UG.com user DrLeonard)
E-mail: macheeoo@yahoo.com

Tuning: Standard CAPO III

Chords to know!
[D/F#]


e|---3---0---0---2---2---2-----2---0---0-------------------------------------|
B|---0---0---1---3---1---3-----0---1---0-------------------------------------|
G|---0---0---0---2---2---2-----2---2---1-------------------------------------|
D|---0---2---2---0---0---0-----1---2---0-------------------------------------|
A|---2---2---3---X---X---X-----2---0---2-------------------------------------|
E|---3---0---X---X---X---2-----X---X---0-------------------------------------|

Intro Piano Riff: (Relative to Capo)
[C/G] [C/G]


e|------------0-3~--0---------2------------0-3~--0----------2----------------|
B|---0-3--0h3-------1---------1---0-3--0h3-------1----------1----------------|
G|------------------0---------2------------------0----------2----------------|
D|------------------2--2-1-0---------------------2----------0----------------|
A|------------------3----------------------------3--3-2-3-4------------------|
E|------------------3----------------------------3---------------------------|

Just my luck you’d walk into this party
G Em C (You can walk down the D string
Just my luck you’d show up with my friends before the next G chord D-2-1-0-)
It’s not the words that they reduce me to
Or where your life is leading you
It’s the same reason that it always has been
Just my luck

REPEAT INTRO RIFF

Just my luck I never said I loved you
Just my luck it completely slipped my mind
It’s not my colder-hearted tendencies
That keeps you from being here with me
Or the universe’s brilliant designs
It’s just my luck

I spend my whole life moving forwards but u[D/F#]nderstand it looking back
Like watching last night’s tapes in the middle of a game
I should know how this thing works now, I should [D/F#]accept it as a fact
That there’s really nothing out there I can [C/G]blame

Just my luck this goodbye could get so casual
Just my luck I still talk like I got a chance
It’s not because I do not clearly see
That you are finally done with me
No I figured that out long in advance
And it’s not because I don’t know this dance
This has happened enough times for us to see
It’s not because you’re not meant for me
D D7 G (With Intro Riff)
It’s just my luck
It’s just my luck
It’s just my luck
Just my luck

Solo: (Relative to Capo)


e|--------------5--5/7--7--7-7-7--5--3~--5/7--7~--------10-12----------------|
B|-1~-3~-5~-7-8-7--7/8--8--8-8-8--7--5~--7/8--8~--10h12-------10h12p10-------|
G|-2~-4~-5~-7-9--------------------------------------------------------------|
D|---------------------------------------------------------------------------|
A|---------------------------------------------------------------------------|
E|---------------------------------------------------------------------------|

| | Repeat x2


e|-7--7-7-7--5--3--2--0------------------------------------------------------|
B|-8--8-8-8--7--5--3--1---5p3------------------------------------------------|
G|----------------------------5-4-2h4p2p0------------------------------------|
D|----------------------------------------4-2-0~-----------------------------|
A|---------------------------------------------------------------------------|
E|---------------------------------------------------------------------------|

End with Intro Piano Riff –> End on C/G chord!!!

To play the most songs, including Just My Luck by Dawes by ukulele, the most crucial basic ukulele chords to learn are C chord, D chord, G chord, and Em chord.
These set you up to play a a lot of songs, and each of them is easy to learn.

Leave a Reply

Your email address will not be published.