Keep Me Waiting by Roxette Ukulele Chords

Posted on

If you are looking for Keep Me Waiting ukulele chords, you have come to the right place.
You can play versatile instrument Keep Me Waiting using ukulele or guitar.
This song by Roxette can also be played by that instruments.
=

Keep Me Waiting chords has rhythm and included in Tourism (1992) album.
You can also find other musical genres, including jazz ukulele chords, country music ukulele chords, pop ukulele chords, world music ukulele chords, and rock ukulele chords here.

Keep Me Waiting by Roxette Ukulele Chords

THIS IS THE TAB FOR A GREAT SONG WHICH I HAVE SUPRISINGLY NOT SEEN ANYWHERE ELSE ON THE
IN THE INTRO AND THE RIFF THERE MAY BE A FEW MISTAKES BUT I AM SURE THAT YOU CAN TWEAK
HERE IT IS

times 4


e|----------------------------------------------------------------------------------|
B|-------------------------3----------------3-----------------------3---------------|
G|---------------0-----------------0-----------0---------3-----------------0--------|
D|-----------------------------------3----------------------------------------------|
A|----------------------------------------------------------------------------------|
E|----------------------------------------------------------------------------------|
e|-------------------------------------------------------------------------------|
B|----------3---------1----------------------------------------------------------|
G|----------------------------3--------------------------------------------------|
D|-------------------------------------------------------------------------------|
A|-------------------------------------------------------------------------------|
E|-------------------------------------------------------------------------------| Em

1. I hit the coast with the faith of a preacherman,
I saw a ghost with a face like a madman.
I had this dream I was sleeping at the Royal Ball,[-]
I hit the streets, hey, watch me in the monitor!
I saw a clone who looked just like a senator.
I checked the clock, I felt that it was time to go, go, go.

CHORUS
Then [-C-D]came you. Why did you keep me waiting[-C-D] so long?
Why did you keep me waiting so long?[-][-]
Why did you keep me waiting so long?

INTRO RIFF times 2

verse 2
2. I was a spy, I was captured by the enemies,
I made a million selling secret fantasies.
I saw my love wasted in a pale grey zone,[-]
I was the quake shaking every monument.
I had to fi-find out what all the money meant.
I checked the sun, I knew that it was time to go, go go go.
CHORUS
Then came you. [-C-D] Why did you keep me waiting so long?[-C-D]
Why did you keep me waiting so long?[-][-]


G D Em -D-G-D Em-D-G-D

Why did you keep me waiting so long?
CHORDS FOR CHORUS PLAYED WITH NO VOCAL

THEN RIFF 1 TIMES 4


e|--------------------------------------------------------------------------------------|
B|--------3---3-------3----3---------3-----3--------------------------------------------|
G|--------0---0----------------------3-----3--------3------5---5------3----5------------|
D|--------------------3----3------------------------3------5---5------3----5------------|
A|--------------------------------------------------------------------------------------|

CHORUS
Then came you. [-C-D] Why did you keep me waiting so long?[-C-D]
Why did you keep me waiting so long?[-][-]


G D Em -D-G-D Em-D-G-D

Why did you keep me waiting so long?
BY JAMES AGED 12
INTRO RIFF TIME 4

To play the most songs, including Keep Me Waiting by Roxette by ukulele, the most important basic ukulele chords to learn are C chord, D chord, G chord, and Em chord.
These set you up to play a a lot of songs, and each of them is easy to learn.

Leave a Reply

Your email address will not be published.