Kids and Heroes by The Bouncing Souls Ukulele Chords

Posted on

If you are searching for Kids and Heroes ukulele chords, you’ve visit to the right place.
You can play versatile instrument Kids and Heroes using ukulele or guitar.
This song by The Bouncing Souls can also be played by that instruments.
=

Kids and Heroes chords has rhythm and included in Anchors Aweigh (2003) album.
You can also get other musical genres, including jazz ukulele chords, country music ukulele chords, pop ukulele chords, world music ukulele chords, and rock ukulele chords here.

Kids and Heroes by The Bouncing Souls Ukulele Chords


Band: Bouncing Souls

Intro: (Just arpegiate the open version of these chords cleanly, its not hard to
figure out. Check another tab for the exact way to do it)

Hey, where have you gone?
You used to be the one that we looked up to
It seemed like nothing could bring you down.
How high was your price And was it worth it?
Nothing in life is sure bet, anyway you’re gone
I guess you weren’t here from the start. In the end
it’s all a question of heart…

Verse 1: (For the verse just play the power chord version of the chords above with
the same lyrics and distorted)


e--------------------------------|
B-------6-5-6-5------------------|
G-5-5-5-x-x-x-x------------------| x2
D-5-5-5-5-5-5-5-5-5-5-5-3-3-3-3--|
A-3-3-3-3-3-3-3-5-5-5-5-3-3-3-3--|
E---------------3-3-3-3-1-1-1-1--|

Verse 2: (key change)
Hey, where did it go-
Everything we fought for, and everything it meant?
Maybe we were just naive- But I still believe
There are only a few things
That really belong to me. WHO I AM, WHO I WAS, and WHO I WANNA BE!


e-------------------------------|
B-------8-7-8-7-----------------|
G-7-7-7-x-x-x-x-----------------| x2
D-7-7-7-7-7-7-7-7-7-7-7-5-5-5-5-|
A-5-5-5-5-5-5-5-7-7-7-7-5-5-5-5-|
E---------------5-5-5-5-3-3-3-3-|

Solo:


e----------------------------------------------------------------|
B-------------------6-6-6-8-5--5-3-3-0-1--1-1-1-1-3--------------|
G---------------------------------------------------5-5-5-5-4----|
D----------------------------------------------------------------|
A-7--7-5-5-5-7-8--8----------------------------------------------|
E----------------------------------------------------------------|
e----------------------------------------------------------------|
B--------------------------------------5-5-3-5-5-5-5-3-6--6--6---|
G-5-5-5-5-4--5-5-5-5-4--5-5-5-5-4--5-5-----------------5--5--5---|
D----------------------------------------------------------------|
A----------------------------------------------------------------|
E----------------------------------------------------------------|
e---------------------8--8--8---12-12-12-12-10-12-12-12-12-12-10--13-13-13-|
B-----5-5-3-5-5-5-5-3-6--6--6---13-13-13-13-13-13-13-13-13-13-13--13-13-13-|
G-5-5-----------------5--5--5----------------------------------------------|
D--------------------------------------------------------------------------|
A--------------------------------------------------------------------------|
E--------------------------------------------------------------------------|

Verse 3: (Same thing as v.1, just pick chords on acoustic)
Hey, where have I gone?
I used to be the one, looking for the hero
In some far off place, blindly ever forward,
Never knowing all along, the truth was right here in my own song
That is an awesome song and I’m pretty sure this is 100% correct! Check out my punk

To play the this songs, including Kids and Heroes by The Bouncing Souls by ukulele, the most crucial basic ukulele chords to learn are C chord, D chord, G chord, and Em chord.
These set you up to play a ton of songs, and each of them is easy to master.

Gravatar Image
Like to play Ukulele and Sudoku Game

Leave a Reply

Your email address will not be published.