Kim by Steve Hackett Ukulele Chords

Posted on

If you are looking for Kim ukulele chords, you’ve come to the right place.
You can play versatile instrument Kim using ukulele or guitar.
This song by Steve Hackett can also be played by that instruments.
=

Kim chords has rhythm and included in Please Don’t Touch (1978) album.
You can also get other musical style, including jazz ukulele chords, country music ukulele chords, pop ukulele chords, world music ukulele chords, and rock ukulele chords here.

Kim by Steve Hackett Ukulele Chords

Steve Hackett – Kim

from Please Don’t Touch, 1978
also Bays of Kings, 1983


e|--------0---------------|--------0---------------|
B|--------2---------------|--------0---------------|
G|--------2---------------|--------0---------------|
D|----2-------------------|--------2---------------|
A|0-----------------------|----2-------------------|
E|------------------------|0-----------------------|


e|--------0---------------|--------0---------------|
B|--------2---------------|--------0---------------|
G|--------2---------------|--------0---------------|
D|----2-------------------|--------2---------------|
A|0-----------------------|----2-------------------|
E|------------------------|0-----------------------|


e|--------0---------------|--------0---------------|
B|--------2---------------|--------0---------------|
G|--------2---------------|--------0---------------|
D|----2-------------------|--------2---------------|
A|0-----------------------|----2-------------------|
E|------------------------|0-----------------------|

(Flute)
E A’ E B E D


e|--------0---------------|--------0---------------|
B|--------2---------------|--------0---------------|
G|--------2---------------|--------0---------------|
D|----2-------------------|--------2---------------|
A|0-----------------------|----2-------------------|
E|------------------------|0-----------------------|


e|--------0---------------|--------3---------------|
B|--------0---------------|--------0---------------|
G|--------0---------------|--------0---------------|
D|--------2---------------|--------0---------------|
A|----2-------------------|----2-------------------|
E|0-----------------------|3-----------------------|

E F# G A’ G


e|--------0---------------|--------0---------------|
B|--------2---------------|--------0---------------|
G|--------2---------------|--------0---------------|
D|----2-------------------|--------2---------------|
A|0-----------------------|----2-------------------|
E|------------------------|0-----------------------|


e|--------0---------------|--------0---------------|
B|--------2---------------|--------0---------------|
G|--------2---------------|--------0---------------|
D|----2-------------------|--------2---------------|
A|0-----------------------|----2-------------------|
E|------------------------|0-----------------------|


e|--------0---------------|--------0---------------|
B|--------2---------------|--------0---------------|
G|--------2---------------|--------0---------------|
D|----2-------------------|--------2---------------|
A|0-----------------------|----2-------------------|
E|------------------------|0-----------------------|

E A’ E B E D


e|--------0---------------|--------0---------------|
B|--------2---------------|--------0---------------|
G|--------2---------------|--------0---------------|
D|----2-------------------|--------2---------------|
A|0-----------------------|----2-------------------|
E|------------------------|0-----------------------|


e|--------0---------------|--------3---------------|
B|--------0---------------|--------0---------------|
G|--------0---------------|--------0---------------|
D|--------2---------------|--------0---------------|
A|----2-------------------|----2-------------------|
E|0-----------------------|3-----------------------|

E F# G A’ G


e|--------0---------------|--------0-----------0---|
B|--------2---------------|--------2-----------2---|
G|--------2---------------|--------2-----------2---|
D|----2-------------------|----2---------------2---|
A|0-----------------------|0-------------------0---|
E|------------------------|------------------------|


e|3-----------------------|------------------------|
B|0-----------------------|----------------2-------|
G|0-----------------------|------------2-------2---|
D|0-----------------------|--------4---------------|
A|2-----------------------|----4-------------------|
E|3-----------------------|2-----------------------|


e|------------------------|------------------------|
B|----------------2-------|----------------0-------|
G|------------2-------2---|------------1-------1---|
D|--------4---------------|--------2---------------|
A|----4-------------------|----2-------------------|
E|2-----------------------|0-----------------------|

A’ B’ A’ G# E


e|------------------------|----------------0-------|
B|----------------0-------|------------2-------2---|
G|------------1-------1---|--------2---------------|
D|--------2---------------|----2-------------------|
A|----2-------------------|0-----------------------|
E|0-----------------------|------------------------|

F# A’


e|----------------0-------|----------------2-------|
B|------------2-------2---|------------4-------4---|
G|--------2---------------|--------4---------------|
D|----2-------------------|----4-------------------|
A|0-----------------------|2-----------------------|
E|------------------------|------------------------|


e|2-----------------------|
B|4-----------------------|
G|4-----------------------|
D|4-----------------------|
A|2-----------------------|
E|------------------------|


e|--------0---------------|--------3---------------|
B|--------0---------------|--------0---------------|
G|--------0---------------|--------0---------------|
D|--------2---------------|--------0---------------|
A|----2-------------------|----2-------------------|
E|0-----------------------|3-----------------------|

E F# G A’ G


e|--------0---------------|--------0---------------|
B|--------2---------------|--------0---------------|
G|--------2---------------|--------0---------------|
D|----2-------------------|--------2---------------|
A|0-----------------------|----2-------------------|
E|------------------------|0-----------------------|


e|--------0---------------|--------0---------------|
B|--------2---------------|--------0---------------|
G|--------2---------------|--------0---------------|
D|----2-------------------|--------2---------------|
A|0-----------------------|----2-------------------|
E|------------------------|0-----------------------|


e|--------0---------------|--------0---------------|
B|--------2---------------|--------0---------------|
G|--------2---------------|--------0---------------|
D|----2-------------------|--------2---------------|
A|0-----------------------|----2-------------------|
E|------------------------|0-----------------------|

E A’ D E D B E D E D


e|--------0---------------|--------0---------------|
B|--------2---------------|--------0---------------|
G|--------2---------------|--------0---------------|
D|----2-------------------|--------2---------------|
A|0-----------------------|----2-------------------|
E|------------------------|0-----------------------|


e|--------0---------------|--------3---------------|
B|--------0---------------|--------0---------------|
G|--------0---------------|--------0---------------|
D|--------2---------------|--------0---------------|
A|----2-------------------|----2-------------------|
E|0-----------------------|3-----------------------|

E F# G A’ G


e|--------0---------------|--------0-----------0---|
B|--------2---------------|--------2-----------2---|
G|--------2---------------|--------2-----------2---|
D|----2-------------------|----2---------------2---|
A|0-----------------------|0-------------------0---|
E|------------------------|------------------------|


e|3-----------------------|------------------------|
B|0-----------------------|----------------2-------|
G|0-----------------------|------------2-------2---|
D|0-----------------------|--------4---------------|
A|2-----------------------|----4-------------------|
E|3-----------------------|2-----------------------|


e|------------------------|------------------------|
B|----------------2-------|----------------0-------|
G|------------2-------2---|------------1-------1---|
D|--------4---------------|--------2---------------|
A|----4-------------------|----2-------------------|
E|2-----------------------|0-----------------------|

A’ B’ A’ G# E


e|----------------0-------|----------------5-------|
B|--------------------0---|--------------------5---|
G|------------1-----------|------------6-----------|
D|--------2---------------|--------7---------------|
A|----2-------------------|----7-------------------|
E|0-----------------------|5-----------------------|

F# A’


e|----------------5-------|----------------7-------|
B|--------------------5---|--------------------7---|
G|------------6-----------|------------8-----------|
D|--------7---------------|--------9---------------|
A|----7-------------------|----9-------------------|
E|5-----------------------|7-----------------------|


e|7-----------------------|
B|7-----------------------|
G|8-----------------------|
D|9-----------------------|
A|9-----------------------|
E|7-----------------------|

[—]
Note: in flute part, A is just below middle C, and A’ is an octave higher.

To play the this songs, including Kim by Steve Hackett by ukulele, the most crucial basic ukulele chords to learn are C chord, D chord, G chord, and Em chord.
These set you up to play a ton of songs, and each of them is easy to learn.

Leave a Reply

Your email address will not be published.