Konobar by Hladno pivo Ukulele Chords

Posted on

If you are looking for Konobar ukulele chords, you already visit to the right site.
You can play versatile instrument Konobar using ukulele or guitar.
This song by Hladno pivo can also be played by that instruments.
=

Konobar chords has rhythm and included in Knjiga žalbe (2007) album.
You can also find other musical genres, including jazz ukulele chords, country music ukulele chords, pop ukulele chords, world music ukulele chords, and rock ukulele chords here.

Konobar by Hladno pivo Ukulele Chords


INTRO SOLO:

-------------------------|
-------------------------|
-------------------------|
---------4-4-5-4---4-----|
-----5-7---------7---7-5-|
-5-5---------------------| 2x


-----------|
-----------|
-----------|
-5-7-5-4---|
---------7-|
-----------| 2x


-----------------|
-----------------|
-----------------|
-5-4---------4---|
-----7-5-7-7---4-|
-----------------| 2x


-------------------------|
-------------------------|
-------------------------|
---------4-4-5-4---4-----|
-----5-7---------7---7-5-|
-5-5---------------------| 2x


-------------|
-------------|
-------------|
-------------|
-------------|
-5-7-5-4-3-3-| 2x


-----------------|
-----------------|
-----------------|
-----------------|
-5-5-7-5-7-7-9-7-|
-----------------| 2x

Konobar zijeva, vani lagano svice
A ja pijan k’o deva bih jos narucio pice
Ali kakva blamaza, jezik lamata krivo
Ne zna kako se kaze pelin i pivo
Srecom nije seljober, pa da previse pita
Nego pametan ober sto iz ociju cita


-------------------------|
-------------------------|
-------------------------|
---------4-4-5-4---4-----|
-----5-7---------7---7-5-|
-5-5---------------------| 2x

Svu moju bol mada nisam ni pisno
Pa stavlja na stol jos jednom isto
I to je ta kap koja prelijeva casu

Placem ko slap dok naginjem flasu

Zasto sam ja uvijek ta jebena stranka
I zasto ti nisi bar s one strane sanka
Zasto sam ja uvijek ta jebena stranka
Zasto srodna dusa mora bas biti muska ‘?

Kad si dvojica tak pasu to je bolje od seksa
Jedan dodaje casu, a drugi eksa
On nije ni priglup, ni naravi skrte
I uvijek mi kriglu natoci do crte

TRUBA SOLO: D D A G A 2x

On kuzi svu moju bol mada nisam ni pisno
Pa stavlja na stol jos jednom isto
I to je ta kap koja prelijeva casu

Placem ko slap dok naginjem flasu

Zasto sam ja uvijek ta jebena stranka
I zasto ti nisi bar s one strane sanka
Zasto sam ja uvijek ta jebena stranka
Zasto srodna dusa mora bas biti muska ‘?

Zasto sam ja uvijek ta jebena stranka
I zasto ti nisi bar s one strane sanka
Zasto sam ja uvijek ta jebena stranka

To play the most songs, including Konobar by Hladno pivo by ukulele, the most crucial basic ukulele chords to learn are C chord, D chord, G chord, and Em chord.
These set you up to play a a lot of songs, and each of them is easy to learn.

Gravatar Image
Like to play Ukulele and Sudoku Game

Leave a Reply

Your email address will not be published. Required fields are marked *