Krismis In Kampala by Zinkplaat Ukulele Chords

Posted on

If you are searching for Krismis In Kampala ukulele chords, you have come to the right place.
You can play versatile instrument Krismis In Kampala using ukulele or guitar.
This song by Zinkplaat can also be played by that instruments.
=

Krismis In Kampala chords has rhythm and included in Musiek Uit Die Geraas (2007) album.
You can also get other musical genres, including jazz ukulele chords, country music ukulele chords, pop ukulele chords, world music ukulele chords, and rock ukulele chords here.

Krismis In Kampala by Zinkplaat Ukulele Chords


-------------------------------------------------------------------------------

KRISMIS IN KAMPALA – Zinkplaat


-------------------------------------------------------------------------------

Tabbed by: Jakes Maritz
Email: knortjor@gmail.com

Tuning: Standard eBGDAE – Capo on the second fret

Chords used


e|------5-------3-------5-------3-------3-------3-------5------|
B|------3-------3-------3-------3-------3-------3-------3------|
G|------0-------0-------2-------2-------0-------0-------0------|
D|------0-------0-------0-------0-------2-------2-------2------|
A|------2-------2-----------------------2-------3-------2------|
E|------3-------3-----------------------0---------------0------|

The little riff that gets played after Cadd9 every now and then


e|----------------------------|
B|----------------------------|
G|----------------------------|
D|----------------------------|
A|------3------2------0-------|
E|----------------------------|

The following riff is played by the second guitar, just listen to the song


e|--------------------------------------|
B|------3------5------3------5------3---|
G|---4------4------4------4------4------|
D|--------------------------------------|
A|--------------------------------------|
E|--------------------------------------|

Gadd9 G D5 Dsus4 Em7 Cadd9 (riff)
Gadd9 G D5 Dsus4 Em7 Cadd9 (riff)

Ek vang ‘n veldtie onder ‘n piesangboom
Terwyl die volmaan deur my neusgate stroom
en daar’s ‘n knapse-kerel aan my broek se soom
En ‘n swart kersvader in my betlehem droom

Gadd9 G D5 Dsus4 Em7 Cadd9 (riff)

En ek is lus vir ‘n lekker dis
Vir boeliebief of ‘n blikkie vis
En ek dink vanaand aan almal wat ver is

Dit was krismis in Kampala

Gadd9 D5 E7sus4 Cadd9 (riff)

Vuurvliegie flikker hier en daar
Iewers tussen my en die ewenaar
Maar my hart is lig, my gemoed is swaar
Ek’s in Afrika en dis donker daar

Gadd9 G D5 Dsus4 Em7 Cadd9 (riff)

En ek is lus vir ‘n lekker dis
Vir boeliebief of geblikte vis
En ek dink vanaand aan almal wat ek mis
Dit was krismis in Kampala
Dit was krismis in Kampala

Ons speel toe sokker teen ‘n plaaslike span daar
Iewers in die middel in die hart van Uganda
En ek weet vandag is een van daai dae
Wat my kinders gaan vra, vertel ons pa
Van daai krismis in Kampala
Van daai Krismis in Kampala
Van daai krismis in Kampala

Gadd9 D5 E7sus4 Cadd9 (repeat a couple of times behind solo)

Daar was ‘n long drop, maar die het ‘n klankie
””””?
Ek hoop jy se dankie
Vir hierdie lewe, hierdie avontuur
Vir toiletpapier en Afrika vuur

This tab needs some work but please feel free to contact me. Thanks to Zinkplaat
for another awesome song!!

To play the most songs, including Krismis In Kampala by Zinkplaat by ukulele, the most crucial basic ukulele chords to learn are C chord, D chord, G chord, and Em chord.
These set you up to play a ton of songs, and each of them is easy to master.

Gravatar Image
Like to play Ukulele and Sudoku Game

Leave a Reply

Your email address will not be published. Required fields are marked *