Lady by Kenny Rogers Ukulele Chords

Posted on

If you are looking for Lady ukulele chords, you’ve come to the best place.
You can play versatile instrument Lady using ukulele or guitar.
This song by Kenny Rogers can also be played by that instruments.
=

Lady chords has rhythm and included in Through the Years album.
You can also find other musical genres, including jazz ukulele chords, country music ukulele chords, pop ukulele chords, world music ukulele chords, and rock ukulele chords here.

Lady by Kenny Rogers Ukulele Chords


Capo VI

Chord voicings I use:

[C/E] [G/F][G/B]


e--0----0----3----1----0---1----0------0-----0----0----------0--------0--|
B--1----3----0----1----0---1----1------3-----2----1-----3----1---3----1--|
G--2----2----0----2----0---2----0------2-----2----2-----0----0---0----0--|
D--2----0----0----0----2---3----2------2-----2----3-----0----2---0----2--|
A--0---------x---------2---3----3------0-----0----x-----x----3---2----0--|
E------------3---------0---1----0-----------------1-----1----------------|

If you wanna get really fancy, the capo makes it easy to emulate the verse vocal/piano part fingerstyle
while still keeping the bass notes of the chords like this:


e------0----------------------------------------|
B-----1------------0---1-------------0---1------|
G----2---------2-----------------2--------------|
D---2----2---2---2---2---2-----2---2---2---2----|
A--0-------------------------0------------------|
E-----------------------------------------------|


e--0----------------0---0---------------------------------0--------|
B---------0---1----------------3---3---1----0--1----3--1-----------|
G-----2------------------------------------------------------------| as an example
D-------2---2----2------0-------------------------------------2----|
A--0------------------------------------------------------0--------|
E-------------------------------------------3----------------------|

La-dy I’m your knight in shi-ning ar-mor and I love you…

Verse:

Lady, I’m your knight in shining armor and I love you

You have made me what I am and I am yours

My love, there’s so many ways I want to say I love you

Let me hold you in my arms forever more

Pre-Chorus:

You have gone and made me such a fool

I’m so [C/E]lost in your love

And oh, we belong together

Won’t you [C/E]believe in my song

Verse:

Lady, for so many years I thought I’d never find you

You have come into my life and made me whole

Forever let me wake to see you each and every morning

Let me hear you whisper softly in my ear

Pre-Chorus:

In my eyes I see no one else but you

There’s no [C/E]other love like our love

And yes, oh yes, I’ll always want you near me

I’ve waited for [C/E]you for so long

Chorus:

Lady, [G/F] your love’s the only [G/B]love I need

And beside me [G/F] is where I want you to [G/B]be

‘Cause, my love,[G/F] there’s somethin’ I want [G/B]you to know

You’re the love [C/E]of my life, you’re my lady

[-] [-] [-]

To play the this songs, including Lady by Kenny Rogers by ukulele, the most crucial basic ukulele chords to learn are C chord, D chord, G chord, and Em chord.
These set you up to play a a lot of songs, and each of them is easy to master.

Gravatar Image
Like to play Ukulele and Sudoku Game

Leave a Reply

Your email address will not be published. Required fields are marked *