Lady Day by Lou Reed Ukulele Chords

Posted on

If you are looking for Lady Day ukulele chords, you’ve visit to the right site.
You can play versatile instrument Lady Day using ukulele or guitar.
This song by Lou Reed can also be played by that instruments.
=

Lady Day chords has rhythm and included in Berlin (1973) album.
You can also find other musical genres, including jazz ukulele chords, country music ukulele chords, pop ukulele chords, world music ukulele chords, and rock ukulele chords here.

Lady Day by Lou Reed Ukulele Chords

(verse 1)
When she walked on down the street

----------6------------11--------------------9---
----6-----7------------11--------------------9---
----6--7--8------------11-------------------10---
----6--8--8--------------------------------------
----4--8--6--------------------------------------
-------6-----------------------------------------

She was like a child staring at her feet


----------6------------11--------------------------9---
----6-----7------------11--------------------------9---
----6--7--8------------11-------------------------10---
----6--8--8--------------------------------------------
----4--8--6--------------------------------------------
-------6-----------------------------------------------

But when she passed the bar and she


--9---6---4---2---1--------------------------------------------------
--9---7---6---2---2--------------------------------------------------
-10---8---6---3---1--------------------------------------------------
-11---8---6---4---3--------------------------------------------------
-----------------------------------4-4-4--4---4--4--4--4-4-4--4---4--
-----------------------------------2-2-2--2---2--2--2--2-2-2--2---2--

heard the music play she had to


---------------------------------------------------
---------------------------------------------------
---------------------------------------------------
---------------------------------------------------
--2--2--2--2--2--2--2--2--2--2--2--2--2--2--2--2---
--0--0--0--0--0--0--0--0--0--0--0--0--0--0--0--0---

go in and sing It had to be that way


-------------------------------------------------------------
-------------------------------------------------------------
-------------------------------------------------------------
--6-----6-----4-----------4----4----4------------------------
--6-----4-----2-----6-----4----2----1--6--4-----2------------
--------------------4------------------4--2-----0------------

She had to go in and sing it had to be that way


---------------------------------------------------------------------------
---------------------------------------------------------------------------
---------------------------------------------------------------------------
------------------------6----6----4-4------4-4-4----4----------------------
---------0--2--4--6--7--6----4----2-1-6----4-2-1----1-6-4------2-----------
-0--2--4------------------------------4---------------4-2------0-----------

(chorus)
And I said no, no, no oh, la—–dy Day


--------------------------4-------------4---------4---------0----------0------
--------------------------4-------------4---------4---------0----------0------
--------------------------4-------------4---------4---------1----1-----1------
--------------------------6-------6-----6----6----6---------2----2-----2------
---------0--2--4--6--7------------6----------6-------------------2------------
-0--2--4--------------------------4----------4-------------------0------------

And I said no, no, no oh, la—–dy Day


--------------------------4-------------4---------4---------0----------0------
--------------------------4-------------4---------4---------0----------0------
--------------------------4-------------4---------4---------1----1-----1------
--------------------------6-------6-----6----6----6---------2----2-----2------
---------0--2--4--6--7------------6----------6-------------------2------------
-0--2--4--------------------------4----------4-------------------0------------

(bridge)


--------------------------------------------------------
--------------------------------------------------------
------------------------------------------------5---7---
------------------------------------------------6---8---
---------0--2--3--5----3-----1-3----1-4-1-3-----6---8---
-0--2--4-------------3--------------------------4---6---


----------------------------------6--
----------------------------------7--
--------------------------6---7---8--
-5--------------6---5-----6---8---8--
-3-----1-3----1-4---3-----4---8---6--
------------------------------6------

(verse 2)
After the applause had died down


----------6------------11--------------------9---
----6-----7------------11--------------------9---
----6--7--8------------11-------------------10---
----6--8--8--------------------------------------
----4--8--6--------------------------------------
-------6-----------------------------------------

and the people drifted away


----------6------------11----------------9---
----6-----7------------11----------------9---
----6--7--8------------11---------------10---
----6--8--8----------------------------------
----4--8--6----------------------------------
-------6-------------------------------------

she climbed down off the bar and went


--9---6---4---2---1-----------------------------------------------------
--9---7---6---2---2-----------------------------------------------------
-10---8---6---3---1-----------------------------------------------------
-11---8---6---4---3-----------------------------------------------------
--------------------------------------4-4-4--4---4--4--4--4-4-4--4---4--
--------------------------------------2-2-2--2---2--2--2--2-2-2--2---2--

out the door to


---------------------------------------------------
---------------------------------------------------
---------------------------------------------------
---------------------------------------------------
--2--2--2--2--2--2--2--2--2--2--2--2--2--2--2--2---
--0--0--0--0--0--0--0--0--0--0--0--0--0--0--0--0---

the ho—tel that she called “home”.


-------------------------------------------------------------
-------------------------------------------------------------
-------------------------------------------------------------
--6-----6-----4-----------4----4----4------------------------
--6-----4-----2-----6-----4----2----1--6--4-----2------------
--------------------4------------------4--2-----0------------

it had greenish walls a bathroom in the hall


----------------------------------------------------------------------------
----------------------------------------------------------------------------
----------------------------------------------------------------------------
------------------------6----6----4-4------4-4-4----4-----------------------
---------0--2--4--6--7--6----4----2-1-6----4-2-1----1-6-4-------2-----------
-0--2--4------------------------------4---------------4-2-------0-----------

(chorus)

To play the this songs, including Lady Day by Lou Reed by ukulele, the most important basic ukulele chords to learn are C chord, D chord, G chord, and Em chord.
These set you up to play a many of songs, and each of them is easy to master.

Gravatar Image
Like to play Ukulele and Sudoku Game

Leave a Reply

Your email address will not be published. Required fields are marked *