Lazy Brain by ApologetiX Ukulele Chords

Posted on

If you are searching for Lazy Brain ukulele chords, you’ve visit to the right place.
You can play versatile instrument Lazy Brain using ukulele or guitar.
This song by ApologetiX can also be played by that instruments.
=

Lazy Brain chords has rhythm and included in Adam Up (2003) album.
You can also find other musical genres, including jazz ukulele chords, country music ukulele chords, pop ukulele chords, world music ukulele chords, and rock ukulele chords here.

Lazy Brain by ApologetiX Ukulele Chords


terms:
muffled string

------- strings

slide down guitar
/ slide up guitar
> pick slide
| bars
h hammer-on
pp pull-off
t tap with right hand (pick hand)
b bend to the note specified (1/2 note is the same as 1 fret)
P.H. pinch harmonic

INTRO
Medium Rock 136


|------------|-------------------X----|----------------------|--------

b:full set volume of lead pick up to “10” and rhythm pick up to “0”
[(F#5)] [(A5)] [(E5)]


|---------------------------|----------------------------------------|
|-^--^-^-^-^-^-^-^-^-^-^-^-^|^-^-^-^-^-^-^-----^---------------------|
|-4-------------------------|--------------(4)-(4)-------------------|
|---------------------------|----------------------------------------|
|---------------------------|------------------------0--(0)--(0)-----|
|---------------------------|------------------------------/--------|

/

[(D5)] [(E5)] [(F#m)] [(A)] [(E)] [(F#m)]


|-----------|------------------|-----------------|------------------|
|-----------|------------------|-----------------|------------------|
|-----------|------------------|-----------------|------------------|
|-----------|------------------|-----------------|------------------|
|-X->-------|------4---5---4---|-2-------2-------|------4---5---4---|
|-X->-------|--2-2---2---2---2-|---5-4-5---5-4-0-|--2-2---2---2---2-|

[(D)] [(E)] [(F#m)] [(A)] [(E)] [(F#m)]


|-----------------|------------------|-----------------|------------------|
|-----------------|------------------|-----------------|------------------|
|-----------------|------------------|-----------------|------------------|
|-----------------|------------------|-----------------|------------------|
|-2-------2-------|------4---5---4---|-2-------2-------|------4---5---4---|
|---5-4-5---5-4-0-|--2-2---2---2---2-|---5-4-5---5-4-0-|--2-2---2---2---2-|

[(D)] [(E)] [E/A] [D/A]


|-----------0-----|--------------------------------------------------|
|--3--------0-----|--------5--------5--------3--------2--------------|
|--2--------1-----|--------6--------4--------2--------2------------2-|
|--0--------2-----|--------7--------6--------4--------2------------2-|
|-----------2-----|--0--0-----0--0-----0--0-----------0-------2/4----|
|-----------0-----|-----------------------------2--4-----------------|

[E/A] [D/A]


|--------------------------|--------------------pp---------------|
|--------2---------5-------|-3--------2-------4-2-0---pp---------|
|--------2---------4-------|-2--------2-------------4-2-0---pp---|
|--------2---------6-------|-4--------2-------------------4-2-0--|
|--0--0-----0-0-0-----0--0-|----------0--------------------------|
|--------------------------|----2--4-----------------------------|

Verse
ozyy……
[E/A] [D/A]


|-------------------------|----------------------------------
|--------5--------5-------|--3-------------------------------
|--------6--------4-------|--2--------2--------2-------------
|--------7--------6-------|--4--------2--------2-------------
|--0--0-----0--0-----0--0-|-----0--0--0--2h-4----------------
|-------------------------|----------------------------------

[E/A] [D/A]


|-------------------------|----------------------------------
|--------5--------5-------|--3-------------------------------
|--------6--------4-------|--2--------2--------2-------------
|--------7--------6-------|--4--------2--------2-------------
|--0--0-----0--0-----0--0-|-----0--0--0--2h-4----------------
|-------------------------|----------------------------------

real different peaple……
[E/A] [D/A]


|-------------------------|----------------------------------
|--------5--------5-------|--3-------------------------------
|--------6--------4-------|--2--------2----------------------
|--------7--------6-------|--4--------2----------------------
|--0--0-----0--0-----0--0-|-----0--0--0----------------------
|-------------------------|----------------------------------

[E/A] [D/A]


|-------------------------|----------------------------------
|--------5--------5-------|--3-------------------------------
|--------6--------4-------|--2--------X----------------------
|--------7--------6-------|--4--------2----------------------
|--0--0-----0--0-----0--0-|-----------0----------------------
|-------------------------|-----0--2-----0--2--3--4----------

cosby he’s not…….
[E/A] [D/A]


|-------------------------|----------------------------------
|--------5--------5-------|--3-------------------------------
|--------6--------4-------|--2--------2--------2-------------
|--------7--------6-------|--4--------2--------2-------------
|--0--0-----0--0-----0--0-|-----0--0--0--2h-4----------------
|-------------------------|----------------------------------

[E/A] [D/A]


|-------------------------|----------------------------------
|--------5--------5-------|--3-------------------------------
|--------6--------4-------|--2--------2--------2-------------
|--------7--------6-------|--4--------2--------2-------------
|--0--0-----0--0-----0--0-|-----0--0--0--2h-4----------------
|-------------------------|----------------------------------

he’s birned out from…..
[E/A] [D/A]


|-------------------------|----------------------------------
|--------5--------5-------|--3-------------------------------
|--------6--------4-------|--2--------2--------2-------------
|--------7--------6-------|--4--------2--------2-------------
|--0--0-----0--0-----0--0-|-----0--0--0--2h-4----------------
|-------------------------|----------------------------------

[E/A] [D/A]


|-------------------------|----------------------------------
|--------5--------5-------|--3-------------------------------
|--------6--------4-------|--2--------2----------------------
|--------7--------6-------|--4--------2----------------------
|--0--0-----0--0----------|-----------0----------------------
|--------------------0h-2-|-----2--4------------12----------

Pre-chorus
cesors soon……
F#5 D5 harm….. F#5 D5 b:


|-------------------------------5-----|-------------------------------
|-----------------------------5-------|-------------------------------
|--------------------7------5---------|--------------------7----------
|--4-----4-----------7----5-----------|--4-----4-----------7-------^--
|--4-----4-----------5--5-------------|--4-----4-----------5------16--
|--2--0--2-----2--0-------------------|--2--0--2--------0-------------

chorus


|--------------------------|---------------------|
|---------------------5----|---------------------|
|------2--------------4----|---------------------|
|------2--------------2----|---------------------|
|------0-------------------|---------------------|
|---------------4--2--0----|---------------------|

Fill 1
b:full


|--------2------------------------------------------------------------------|
|--^---2---5pp2-3pp2---2----------------------------------------------------|
|--4-----------------5---5pp2-4pp2------------------------------------------|
|----------------------------------4pp2-4pp2--------------------------------|
|--------------------------------------------4pp3pp2pp4pp2---2pp4pp2pp4pp2--|
|----------------------------------------------------------5---------------5|

2nd part of chorus


|--------------------------|---------------------|
|---------------------0----|---------------------|
|------2--------------4----|----X->--------------|
|------2-----------2--2----|--------X->----------|
|------0--------4----------|---------------------|
|---------------------0----|---------------------|

Harm.. Harm..


|----------4-------------|----------------|-----------4--4----------|--- |
|----------4-------------|----------------|-----------4--4--------3-|--5-|
|----------4-----------2-|----------------|-----------4--4--------2-|--4-|
|--4-4-4------4--------2-|-------2--------|-4--4--4---------------0-|--2-|
|--4-4-4------4--------0-|-------2--------|-4--4--4----------4-4----|----|
|--2-2-2---------2--4----|-4--2--0---2--4-|-2--0--2----------2-2----|----|

[E/A] [D/A]


|--------------------------------------------------|
|--------5--------5--------3--------2--------------|
|--------6--------4--------2--------2------------2-|
|--------7--------6--------4--------2------------2-|
|--0--0-----0--0-----0--0-----------0-------2/4----|
|-----------------------------2--4-----------------|

A E/A D/A A I’ve


|--------------------------|--------------------pp---------------|
|--------2---------5-------|-3--------2-------4-2-0---pp---------|
|--------2---------4-------|-2--------2-------------4-2-0---pp---|
|--------2---------6-------|-4--------2-------------------4-2-0--|
|--0--0-----0-0-0-----0--0-|----------0--------------------------|
|--------------------------|----2--4-----------------------------|

Verse 2
listened to priest……
[E/A] [D/A]


|-------------------------|----------------------------------|
|--------5--------5-------|--3-------------------------------|
|--------6--------4-------|--2--------2--------2-------------|
|--------7--------6-------|--4--------2--------2-------------|
|--0--0-----0--0-----0--0-|-----0--0--0--2h-4----------------|
|-------------------------|----------------------------------|

A E/A D/A A I’ve


|-------------------------|----------------------------------|
|--------5--------5-------|--3-------------------------------|
|--------6--------4-------|--2--------2--------2-------------|
|--------7--------6-------|--4--------2--------2-------------|
|--0--0-----0--0-----0--0-|-----0--0--0--2h-4----------------|
|-------------------------|----------------------------------|

watched alice cooper get saves from bo—-zz
[E/A] [D/A]


|-------------------------|-----------------------------------|
|--------5--------5-------|--3--------------------------------|
|--------6--------4-------|--2--------2-----------------------|
|--------7--------6-------|--4--------2-----------------------|
|--0--0-----0--0-----0--0-|-----0--0--0-----------------------|
|-------------------------|-----------------------------------|

One
[E/A] [D/A]


|-------------------------|----------------------------------|
|--------5--------5-------|--3-------------------------------|
|--------6--------4-------|--2--------2--------2-------------|
|--------7--------6-------|--4--------2--------2-------------|
|--0--0-----0--0-----0--0-|-----0--0--0--2h-4----------------|
|-------------------------|----------------------------------|

one persons addictions….
[E/A] [D/A]


|-------------------------|----------------------|
|--------5--------5-------|--3-------------------|
|--------6--------4-------|--2--------2--------2-|
|--------7--------6-------|--4--------2--------2-|
|--0--0-----0--0-----0--0-|-----0--0--0--2h-4----|
|-------------------------|----------------------|

The
[E/A] [D/A]


|-------------------------|----------------------------------|
|--------5--------5-------|--3-------------------------------|
|--------6--------4-------|--2--------2--------2-------------|
|--------7--------6-------|--4--------2--------2-------------|
|--0--0-----0--0-----0--0-|-----0--0--0--2h-4----------------|
|-------------------------|----------------------------------|

but jesus saved….
[E/A] [D/A]


|-------------------------|--------------------------|
|--------5--------5-------|--3-----------------------|
|--------6--------4-------|--2--------2--------2-----|
|--------7--------6-------|--4--------2--------2-----|
|--0--0-----0--0-----0--0-|-----0--0--0--2h-4--------|
|-------------------------|--------------------------|

[E/A] [D/A]


|-------------------------|-------------------------|
|--------5--------5-------|--3----------------------|
|--------6--------4-------|--2--------2-------------|
|--------7--------6-------|--4--------2-------------|
|--0--0-----0--0----------|-----------0-------------|
|--------------------0h-2-|-----2--4-----------12--|

Pre-chorus
maetal grupes…..
F#5 D5 harm….. F#5 D5 b:


|-------------------------------5-----|-------------------------------
|-----------------------------5-------|-------------------------------
|--------------------7------5---------|--------------------7----------
|--4-----4-----------7----5-----------|--4-----4-----------7-------^--
|--4-----4-----------5--5-------------|--4-----4-----------5------16--
|--2--0--2-----2--0-------------------|--2--0--2--------0-------------

chorus


|--------------------------|---------------------|
|---------------------5----|---------------------|
|------2--------------4----|---------------------|
|------2--------------2----|---------------------|
|------0-------------------|---------------------|
|---------------4--2--0----|---------------------|

Fill 2


|------------------------------------------------------------------------|
|---13pp10----14pp11----15pp12----16pp13----17pp14----18pp15----19pp16---|
|----------11--------12--------13--------14--------15--------16--------17|
|------------------------------------------------------------------------|
|------------------------------------------------------------------------|
|------------------------------------------------------------------------|

2nd chorus


|-------------------------|-----------------------|------------------|
|-20pp17----21pp18--------|------------------0----|------------------|
|--------18--------19-----|---2--------------4----|------------------|
|-------------------------|---2-----------2--2----|------------------|
|-------------------------|---0--------4----------|------------------|
|---------------------19-|------------------0----|------------------|

Harm.. Harm..


|----------4-------------|----------------|-----------4--4----------|--0 |
|----------4-------------|----------------|-----------4--4--------3-|--0-|
|----------4-----------2-|----------------|-----------4--4--------2-|--1-|
|--4-4-4------4--------2-|-------2--------|-4--4--4---------------0-|--2-|
|--4-4-4------4--------0-|-------2--------|-4--4--4----------4-4----|--2-|
|--2-2-2---------2--4----|-4--2--0---2--4-|-2--0--2----------2-2----|--0-|

Bridge
y dont we listin to romans…..


|-----------------|------------------------|------------|-----0----0----|
|-----------------|------------------------|------------|--3----3--5----|
|--11--11--------|--2---------------------|--11--11---|--2-------4----|
|--11--11--------|--2---------2--2--------|--11--11---|--0-------2----|
|--9---9---------|--0---------2--2--------|--9---9----|---------------|
|-----------------|------4--2--0--0--4pp0--|------------|---------------|

You gotta listen to…_


|-----------------|------------------------|------------|---------------|
|-----------------|------------------------|------------|---------------|
|--11--11--------|--2---------------------|--11--11---|--7-------9----|
|--11--11--------|--2---------2--2--------|--11--11---|--7-------9----|
|--9---9---------|--0---------2--2--------|--9---9----|--5-------7----|
|-----------------|------4--2--0--0--4pp0--|------------|---------------|

GUITAR SOLO ppull-off TTap on right hand hhammer-on
[(F#m)] [(E5)] [(D)]


|---T----------T----------T----------T----------|T----------T----------
|---14p10p7p10-14p10p7p10-14p10p7p10-14p10p7p10-|14p10p7p10-15p10p7p10-
|-----------------------------------------------|----------------------
|-----------------------------------------------|----------------------
|-----------------------------------------------|----------------------
|-----------------------------------------------|----------------------

[(C#5)] [(Bm)] [(A)] [(A/G#)]


|-T----------T----------|-----------------------------------------------|
|-15p10p7p10-15p10p7p10-|-9h12-9h12-9h12-9h12-9h12-8h11-7h10-7h10-7h10--|
|-----------------------|-----------------------------------------------|
|-----------------------|-----------------------------------------------|
|-----------------------|-----------------------------------------------|
|-----------------------|-----------------------------------------------|

b:full b:full rake.. b:full ^b:full


|-------------------|-------17--16--14---^------|--14--16--17--17-------|
|--^---10---^-------|-----14------------17------|-----------------------|
|--9--------9-------|---14----------------------|-----------------------|
|-------------------|-16------------------------|-----------------------|
|-------------------|---------------------------|-----------------------|
|-------------------|---------------------------|-----------------------|

b:full b:full


|--14-17p14----14-------------------------------------------------------|
|-----------17----17-15p14-15p14--------------------^---17---^----------|
|--------------------------------17p14-16p14-------16-------16----------|
|--------------------------------------------16p14----------------------|
|-----------------------------------------------------------------------|
|-----------------------------------------------------------------------|

sim.


|--------------|--14-17-14-17-14-17-14-17-14/16-19-16-19-16/17-21-17-21-|
|--------14h17-|--------------------------------------------------------|
|--14h16-------|--------------------------------------------------------|
|--------------|--------------------------------------------------------|
|--------------|--------------------------------------------------------|
|--------------|--------------------------------------------------------|
|-17-21-17-21-17-21-17-21-17-21-17-21-17-21-1716-19-16-19-1614-15-14--|
|-----------------------------------------------------------------------|
|-----------------------------------------------------------------------|
|-----------------------------------------------------------------------|
|-----------------------------------------------------------------------|
|-----------------------------------------------------------------------|

b:full b:full


|-15-14-15-14-|---^--17--^----------------------------------------------|
|-------------|--17-----17-----17-14----------14----------14------------|
|-------------|----------------------16-14-------16-14-------16-14------|
|-------------|----------------------------16----------16----------16---|
|-------------|---------------------------------------------------------|
|-------------|---------------------------------------------------------|
|--------------------------|---------------------------|----------------|
|--14----------14----------|---------------------------|----------------|
|-----16-14-------16-14----|-13p14h13-16-14p13----16---|-------------14-|
|-----------16----------16-|-------------------16------|-------14-16----|
|--------------------------|---------------------------|-14-16----------|
|--------------------------|---------------------------|----------------|

b:full..


|----------14-17p16p14-19p17-19p17-|-19--19-----------------------------|
|-------17-------------------------|------------------------------------|
|-16/18----------------------------|------------------------------------|
|----------------------------------|------------------------------------|
|----------------------------------|------------------------------------|
|----------------------------------|------------------------------------|

[(D5)] [(E5)] [(F#m)] [(A)] [(E)] [(F#m)]


|------------------|-----------------|------------------|-----------------|
|------------------|-----------------|------------------|-----------------|
|------------------|-----------------|------------------|-----------------|
|------------------|-----------------|------------------|-----------------|
|------4---5---4---|-2-------2-------|------4---5---4---|-2-------2-------|
|--2-2---2---2---2-|---5-4-5---5-4-0-|--2-2---2---2---2-|---5-4-5---5-4-0-|

[(D5)] [(E5)] [(F#m)] [(A)] [(E)] [(F#m)]


|------------------|-----------------|------------------|
|------------------|-----------------|------------------|
|------------------|-----------------|------------------|
|------------------|-----------------|------------------|
|------4---5---4---|-2-------2-------|------4---5---4---|
|--2-2---2---2---2-|---5-4-5---5-4-0-|--2-2---2---2---2-|

[(D)] [(E)] [E/A] [D/A]


|-----------0-----|--------------------------------------------------|
|--3--------0-----|--------5--------5--------3--------2--------------|
|--2--------1-----|--------6--------4--------2--------2------------2-|
|--0--------2-----|--------7--------6--------4--------2------------2-|
|-----------2-----|--0--0-----0--0-----0--0-----------0-------2/4----|
|-----------0-----|-----------------------------2--4-----------------|

[E/A] [D/A]


|--------------------------|--------------------pp---------------|
|--------2---------5-------|-3--------2-------4-2-0---pp---------|
|--------2---------4-------|-2--------2-------------4-2-0---pp---|
|--------2---------6-------|-4--------2-------------------4-2-0--|
|--0--0-----0-0-0-----0--0-|----------0--------------------------|
|--------------------------|----2--4-----------------------------|

Verse 3
there was a cold war…..
[E/A] [D/A]


|-------------------------|----------------------------------
|--------5--------5-------|--3-------------------------------
|--------6--------4-------|--2--------2--------2-------------
|--------7--------6-------|--4--------2--------2-------------
|--0--0-----0--0-----0--0-|-----0--0--0--2h-4----------------
|-------------------------|----------------------------------

A E/A D/A A In-


|-------------------------|----------------------------------
|--------5--------5-------|--3-------------------------------
|--------6--------4-------|--2--------2--------2-------------
|--------7--------6-------|--4--------2--------2-------------
|--0--0-----0--0-----0--0-|-----0--0--0--2h-4----------------
|-------------------------|----------------------------------

he sells mr buble when mtv’s done
[E/A] [D/A]


|-------------------------|----------------------------------
|--------5--------5-------|--3-------------------------------
|--------6--------4-------|--2--------2----------------------
|--------7--------6-------|--4--------2----------------------
|--0--0-----0--0-----0--0-|-----0--0--0----------------------
|-------------------------|----------------------------------

[E/A] [D/A]


|-------------------------|----------------------------------
|--------5--------5-------|--3-------------------------------
|--------6--------4-------|--2--------X----------------------
|--------7--------6-------|--4--------2----------------------
|--0--0-----0--0-----0--0-|-----------0----------------------
|-------------------------|-----0--2-----0--2--3--4----------

latley…….
[E/A] [D/A]


|-------------------------|----------------------------------
|--------5--------5-------|--3-------------------------------
|--------6--------4-------|--2--------2--------2-------------
|--------7--------6-------|--4--------2--------2-------------
|--0--0-----0--0-----0--0-|-----0--0--0--2h-4----------------
|-------------------------|----------------------------------

I’m
[E/A] [D/A]


|-------------------------|----------------------------------
|--------5--------5-------|--3-------------------------------
|--------6--------4-------|--2--------2--------2-------------
|--------7--------6-------|--4--------2--------2-------------
|--0--0-----0--0-----0--0-|-----0--0--0--2h-4----------------
|-------------------------|----------------------------------

the devilish ozzy…..
[E/A] [D/A]


|-------------------------|----------------------------------
|--------5--------5-------|--3-------------------------------
|--------6--------4-------|--2--------2--------2-------------
|--------7--------6-------|--4--------2--------2-------------
|--0--0-----0--0-----0--0-|-----0--0--0--2h-4----------------
|-------------------------|----------------------------------

[E/A] [D/A]


|-------------------------|----------------------------------
|--------5--------5-------|--3-------------------------------
|--------6--------4-------|--2--------2----------------------
|--------7--------6-------|--4--------2----------------------
|--0--0-----0--0----------|-----------0----------------------
|--------------------0h-2-|-----2--4------------12----------

Pre-chorus
F#5 D5 harm….. F#5 D5 b:


|-------------------------------5-----|-------------------------------
|-----------------------------5-------|-------------------------------
|--------------------7------5---------|--------------------7----------
|--4-----4-----------7----5-----------|--4-----4-----------7-------^--
|--4-----4-----------5--5-------------|--4-----4-----------5------16--
|--2--0--2-----2--0-------------------|--2--0--2--------0-------------

chorus


|--------------------------|---------------------|
|---------------------5----|---------------------|
|------2--------------4----|---------------------|
|------2--------------2----|---------------------|
|------0-------------------|---------------------|
|---------------4--2--0----|---------------------|

FILL 3l
b:full b:full


|-17----(17)-14------14-------------------------------------------------|
|---------------17------17p14----14-------------------------------------|
|-----------------------------17----17-16p14-16p14----------------------|
|--------------------------------------------------16p14----------------|
|--------------------------------------------------------16p15-15p14----|
|--------------------------------------------------------------------17-|

goin of the trail 2nd chorus


|-----------------------|------------------|
|------------------0----|------------------|
|---2--------------4----|------------------|
|---2-----------2--2----|------------------|
|---0--------4----------|------------------|
|------------------0----|------------------|

Harm.. Harm..


|----------4-------------|----------------|-----------4--4----------|--0 |
|----------4-------------|----------------|-----------4--4--------3-|--0-|
|----------4-----------2-|----------------|-----------4--4--------2-|--1-|
|--4-4-4------4--------2-|-------2--------|-4--4--4---------------0-|--2-|
|--4-4-4------4--------0-|-------2--------|-4--4--4----------4-4----|--2-|
|--2-2-2---------2--4----|-4--2--0---2--4-|-2--0--2----------2-2----|--0-|

OUTRO


|------------|------------------------|------------|-----0----0----|
|------------|------------------------|------------|--3----3--5----|
|--11--11---|--2---------------------|--11--11---|--2-------4----|
|--11--11---|--2---------2--2--------|--11--11---|--0-------2----|
|--9---9----|--0---------2--2--------|--9---9----|---------------|
|------------|------4--2--0--0--4pp0--|------------|---------------|

Play 2 times
b:1/2 b:1……………
[(F#5)] [(A5)] [(E5)] [(F#5)] [(A5)(E5)]


|---^--------|--12--------------------|------ ---------------|--------|
|--12--------|-(12)-------------------|--^--^--^--^--^--^--^-|--------|
|------------|------------------------|-11-11-11-11-11-11-11-|-(11)--|
|------------|------------------------|-P.H.-----------------|--------|
|------------|-------------------X----|----------------------|--------|
|------------|-------------------X----|----------------------|--------|

b:full set volume of lead pick up to “10” and rhythm pick up to “0”
[(F#5)] [(A5)] [(E5)]


|---------------------------|----------------------------------------|
|-^--^-^-^-^-^-^-^-^-^-^-^-^|^-^-^-^-^-^-^-----^---------------------|
|11-------------------------|--------------(4)-(4)-------------------|
|---------------------------|----------------------------------------|
|---------------------------|------------------------0--(0)--(0)-----|
|---------------------------|------------------------------/--------|

/

[(D5)] [(E5)] [(F#m)] [(A)] [(E)] [(F#m)]


|------------------|-----------------|------------------|-----------------|
|------------------|-----------------|------------------|-----------------|
|------------------|-----------------|------------------|-----------------|
|------------------|-----------------|------------------|-----------------|
|------4---5---4---|-2-------2-------|------4---5---4---|-2-------2-------|
|--2-2---2---2---2-|---5-4-5---5-4-0-|--2-2---2---2---2-|---5-4-5---5-4-0-|

[(D5)] [(E5)] [(F#m)] [(A)] [(E)] [(F#m)]


|------------------|-----------------|------------------|-----------------|
|------------------|-----------------|------------------|--3---------5----|
|------------------|-----------------|------------------|--2---------4----|
|------------------|-----------------|------------------|--0---------2----|
|------4---5---4---|-2-------2-------|------4---5---4---|-----------------|
|--2-2---2---2---2-|---5-4-5---5-4-0-|--2-2---2---2---2-|-----------------|


|---------------------|
|---------------------|
|-11--11-------------|
|-11--11-------------|
|--9---9-------------|
|---------------------|

If you have anyquestions E-mail me at: lynyrdskynyrd_1977@hotmail.com or AIM: undiscovered1093

To play the most songs, including Lazy Brain by ApologetiX by ukulele, the most crucial basic ukulele chords to learn are C chord, D chord, G chord, and Em chord.
These set you up to play a ton of songs, and each of them is easy to master.

Leave a Reply

Your email address will not be published.