Legacy by Kutless Ukulele Chords

Posted on

If you are looking for Legacy ukulele chords, you have come to the best site.
You can play versatile instrument Legacy using ukulele or guitar.
This song by Kutless can also be played by that instruments.
=

Legacy chords has rhythm and included in Hearts of the Innocent (2006) album.
You can also get another musical style, including jazz ukulele chords, country music ukulele chords, pop ukulele chords, world music ukulele chords, and rock ukulele chords here.

Legacy by Kutless Ukulele Chords

Copyright2006 BEC Recordings
Drop C# Tuning C#-G#-C#-F#-A#-D#

palm mute…etc.

Intro


F#[-------------------5-----5----]
C#[-0/5/7-0/3/4/5-0/0-5-0/0-5----]
G#[-0/5/7-0/3/4/5-0/0-3-0/0-3----]x3
C#[-0/5/7-0/3/4/5-0/0---0/0------]
F#[-------------------7-----7----]
C#[-0/5/7-0/3/4/5-0/0-6-0/0-6----]
G#[-0/5/7-0/3/4/5-0/0-6-0/0-6----]
C#[-0/5/7-0/3/4/5-0/0---0/0------]

Verse 1


F#[---------------------------------------------5--------]
C#[-0/0/0/0/3/4/5-0/0/5/0/0/3-0/0/0/0/3/4/5-0/0-5-0/0----]
G#[-0/0/0/0/3/4/5-0/0/5/0/0/3-0/0/0/0/3/4/5-0/0-3-0/0----]x2
C#[-0/0/0/0/3/4/5-0/0/5/0/0/3-0/0/0/0/3/4/5-0/0---0/0----]

…………. . … …….

Pre-Chorus


F#[-10----7----10----------]
C#[-10----7----10----10----]
G#[--8----5-----8----10----]
C#[--8----5-----8----10----]

Chorus


F#[-7-----5---------------5----]
C#[-7-----5--5-8----0--3--5----]
G#[-5-----3--5-8----0--3--3----]x3
C#[----------5-8----0--3-------]

Then


D[-8----10----]
A[-8----10----]
D[-8----10----]

Post-Chorus


F#[-------------------5-----5----]
C#[-0/5/7-0/3/4/5-0/0-5-0/0-5----]
G#[-0/5/7-0/3/4/5-0/0-3-0/0-3----]
C#[-0/5/7-0/3/4/5-0/0---0/0------]
F#[-------------------7-----7----]
C#[-0/5/7-0/3/4/5-0/0-6-0/0-6----]
G#[-0/5/7-0/3/4/5-0/0-6-0/0-6----]
C#[-0/5/7-0/3/4/5-0/0---0/0------]

Verse 2
(Same as Verse 1)

Pre-Chorus

Chorus

Bridge
Gtr. 2


D[----------------------0----------]
A[----10-------8-8----0------------]
D[-10----10--8------0------5--3----]
D[-----------------------------------]
A[----10-------8-8----0/0------------]x2
D[-10----10--8------0-----0--5--3----]
D[-----------------7----]
A[----10-------8-8-7----]
D[-10----10--8-----7----]

Gtr. 1


D#[-8--------5--3----8--------10----8--------5--3----8--------9----]

Then
Gtr. 2 (They use some sort of pedal)


F#[-------------------5-----5----]
C#[-0/5/7-0/3/4/5-0/0-5-0/0-5----]
G#[-0/5/7-0/3/4/5-0/0-3-0/0-3----]x3
C#[-0/5/7-0/3/4/5-0/0---0/0------]
F#[-------------------7-----7----]
C#[-0/5/7-0/3/4/5-0/0-6-0/0-6----]
G#[-0/5/7-0/3/4/5-0/0-6-0/0-6----]
C#[-0/5/7-0/3/4/5-0/0---0/0------]


Gtr. 1
D#[–10(let it ring)–]

Chorus 2


F#[-7-----5---------------5----]
C#[-7-----5--5-8----0--3--5----]
G#[-5-----3--5-8----0--3--3----]x3
C#[----------5-8----0--3-------]

Then


D[-8----10----]
A[-8----10----]x2
D[-8----10----]

Ending


D[-0/0-0-0/0-3/3-3-3/3-8/8-8-8/8-10--7--]
A[-0/0-0-0/0-3/3-3-3/3-8/8-8-8/8-10--7--]
D[-0/0-0-0/0-3/3-3-3/3-8/8-8-8/8-10--7--]
D[-0/0-0-0/0-3/3-3-3/3-8/8-8-8/8-7--10--]
A[-0/0-0-0/0-3/3-3-3/3-8/8-8-8/8-7--10--]
D[-0/0-0-0/0-3/3-3-3/3-8/8-8-8/8-7--10--]

Tabbed by Adam K

To play the most songs, including Legacy by Kutless by ukulele, the most crucial basic ukulele chords to learn are C chord, D chord, G chord, and Em chord.
These set you up to play a many of songs, and each of them is easy to master.

Leave a Reply

Your email address will not be published.