Let Me Be the One by Jimmy Bondoc Ukulele Chords

Posted on

If you are looking for Let Me Be the One ukulele chords, you have come to the right place.
You can play versatile instrument Let Me Be the One using ukulele or guitar.
This song by Jimmy Bondoc can also be played by that instruments.
=

Let Me Be the One chords has rhythm and included in Other Songs album.
You can also get another musical style, including jazz ukulele chords, country music ukulele chords, pop ukulele chords, world music ukulele chords, and rock ukulele chords here.

Let Me Be the One by Jimmy Bondoc Ukulele Chords


Tabbed By robyn (clark_biel@yahoo.com)

INTRO:


e|----12-------12-------------|-----------------------------|
B|--------------------12-14-14|------12---14-14------12--14-|
G|-14-------14-----14---------|--14--------------14---------|
D|---12---12----------11------|-----------------------------|
A|----------------------------|-----14--------------12------|
E|----------------------------|-----------------------------|
e|--------12------------------|----------------------------|
B|-----------------12-12h14-12|10--------------------------|
G|-----14-----14--------------|------9---------------------|
D|--0-------------11----------|------0---------------------|
A|----------------------------|----------------------------|
E|----------------------------|----------------------------|
e|-------------------------------|-------------------------------|
B|--------0?0h2-0----------------|--------0?0h2-0----------------|
G|-------2-----------------------|-------2------------2----------|
D|--2-----------0----------------|--2-----------0----------------|
A|--0---0------------------------|--0---0------------------------|
E|-------------------------------|-------------------------------|
e|------------------------------------------------------------|
B|--------0?0h-0----------------------------------------------|
G|-------2----------------------------------------------------|
D|--2----------0----------------------------------------------|
A|--0---0-----------------------------------------------------|
E|------------------------------------------------------------|

(here’s the rest of the songs tabbed by someone else)

VERSE:
Somebody told me you were leaving, I didn’t know…


e|------------------------------0----|------------------------|
B|-----0----x------------------3-----|--------0-0h2-0---------|
G|----2-----x-----------------2------|-------2----------------|
D|---2------x----------------0-------|--2-----------0---------|
A|--0-------x------------------------|--0---0-----------------|
E|-----------------------------------|------------------------|


Somebody told me you’re unhappy, but it doesn’t show…


e|------------------------------0--0-|------4--------2--------0-|
B|-----0----x------------------3-----|------5---x----2------0---|
G|----2-----x-----------------2------|------4---x----2----1-----|
D|---2------x----------------0-------|------6---x----4---0------|
A|--0-------x------------------------|------4---x---------------|
E|-----------------------------------|--------------------------|


Somebody told me that you don’t want me no more… no…


e|------0---0-------2---------4----0-|--7-----2----------------|
B|-----3----------------------5------|--------3--------2^3-----|
G|----2-----------------------4------|--------2----------------|
D|---0------------------------6------|--------4----------------|
A|----------------------------4------|--------2------2---------|
E|-----------------------------------|-------------------------|

So you’re walking out the door…


e|------0----------------------------|
B|-----0-----------------------------|
G|----1------------------------------|
D|---2-------------------------------|
A|--2--------------------------------|
E|-0---------------------------------|


Nobody told me you’ve been crying every night…


e|------------------------------0----|----------0------0---0---|
B|-----0----x------------------3-----|-----0---0--x---2---2--x-|
G|----2-----x-----------------2------|----2---2---x--2---2---x-|
D|---2------x----------------0-------|---2--------x----------x-|
A|--0-------x------------------------|--0---------x----------x-|
E|-----------------------------------|-------------------------|


Nobody told me you’d been dying, but didn’t want to fight…


e|------------------------------0--0-|------4--------2--------0-|
B|-----0----x------------------3-----|------5---x----2------0---|
G|----2-----x-----------------2------|------4---x----2----1-----|
D|---2------x----------------0-------|------6---x----4---0------|
A|--0-------x------------------------|------4---x---------------|
E|-----------------------------------|--------------------------|


Nobody told me you that you fell out of love for me,


e|------0------0-------2------4----0-|-------7------2----------|
B|-----3----------------------5------|--------------3----------|
G|----2-----------------------4------|--------------2----------|
D|---0------------------------6------|--------------4----------|
A|----------------------------4------|--------------2----------|
E|-----------------------------------|-------------------------|

So I’m setting you free...


e|------0----------------------------|------0----------2------------|
B|-----0-----------------------------|---0-------------2------------|
G|----1------------------------------|-----------------2------------|
D|---2-------------------------------|-----------------4------------|
A|--2--------------------------------|---0--------------------------|
E|-0---------------------------------|------------------------------|

CHORUS:
Let me be the one to break it up so you won’t have to make excuses…


e|-------0------0-------------------|----0-------------------------0----0-|
B|---------------------------2--2---|--------------------2------0------2--|
G|-----------2------2---4-----------|-2-----2---4------------2--------2---|
D|-------0--------------------------|----------------2--------------------|
A|----------------------4-----------|-----------2---------------0---------|
E|----------------------------------|-------------------------------------|


We don’t need to find a set-up where someone wins and someone loses…


e|-------------0--------------------|----0-------------------------0----0-|
B|---------------------------2--2---|--------------------2------0------2--|
G|----------2-------2---4-----------|-2---------4------------2--------2---|
D|-------0--------------------------|----------------2--------------------|
A|----------------------4-----------|-----------2---------------0---------|
E|----------------------------------|-------------------------------------|

We just have to say our love was true but is now become a lie…


e|-------------0--------------------|--------------2---------------------|
B|----------------------------------|-------------------2-3--------------|
G|----------2----2---------4--------|-----------2---------2--------------|
D|-------0---------------6-------2--|--------4------------4--------------|
A|---------------------4------------|---------------------2--------------|
E|----------------------------------|------------------------------------|


So I’m telling you I love you one last time… And goodbye…


e|-------0-----------------------|---------------------0---|
B|----------------------2--------|-----3--------------0----|
G|-----2-----2------4------4--2--|----2--------------1-----|
D|--0----------------------------|---4--------------2------|
A|------------------4------------|--2--------------2-------|
E|-------------------------------|----------------0--------|


e|-------0---------------------|---------------------0---|
B|----------------------2------|-----0--------------0----|
G|-----2-----2------4----------|----0--0-----------1-----|
D|--0--------------------------|---2------2-------2------|
A|------------------4----------|--3--------------2-------|
E|-----------------------------|----------------0--------|


( e|--------12-12-12------------|---------------------2------ )
( B|--------------------12-14-12|10-------------------3------ )
( G|-----14----------14---------|------9--7-----------2------ )
( D|--12----------------11------|------0-----7---2----4------ )
( A|----------------------------|----------------0----2------ )
( E|----------------------------|---------------------------- )

VERSE 2
Somebody told me you still love me, I don’t know why…


e|---------------0--------------0--0-|2-0-------------0----0--|
B|-----0-----------------------3-----|--------0-x----2--------|
G|----2-----------------------2------|-------2--x---2---------|
D|---2-----------------------0-------|------2---x-------------|
A|--0--------------------------------|-----0----x-------------|
E|-----------------------------------|------------------------|


Nobody told me that you only needed time to fly…


e|------------------------------0----|------4--------2--------0-|
B|-----0----x------------------3-----|------5---x----2------0---|
G|----2-----x-----------------2------|------4---x----2----1-----|
D|---2------x----------------0-------|------6---x----4----------|
A|--0-------x------------------------|------4---x-------2-------|
E|-----------------------------------|--------------------------|


Somebody told me that you want to come back when…


e|------0----------------0-----0---0-|-7---0--2-----------------|(3/9)
B|-----3--x-------------3-----2------|--------3--------2^3------|
G|----2---x------------2-----2-------|--------2-----------------|
D|---0----x-----------0-----0--------|--------4-----------------|
A|--------x--------------------------|--------2------2----------|
E|-----------------------------------|--------------------------|

Our love is real again...


e|------0----------------------------|------0----------2------------|
B|-----0-----------------------------|---0-------------2------------|
G|----1------------------------------|-----------------2------------|
D|---2-------------------------------|-----------------4------------|
A|--2--------------------------------|---0--------------------------|
E|-0---------------------------------|------------------------------|

CHORUS:
Let me be the one to break it up so you won’t have to make excuses…


e|-------0------0-------------------|----0-------------------------0----0-|
B|---------------------------2--2---|--------------------2------0------2--|
G|-----------2------2---4-----------|-2-----2---4------------2--------2---|
D|-------0--------------------------|----------------2--------------------|
A|----------------------4-----------|-----------2---------------0---------|
E|----------------------------------|-------------------------------------|


We don’t need to find a set-up where someone wins and someone loses…


e|-------------0--------------------|----0-------------------------0----0-|
B|---------------------------2--2---|--------------------2------0------2--|
G|----------2-------2---4-----------|-2---------4------------2--------2---|
D|-------0--------------------------|----------------2--------------------|
A|----------------------4-----------|-----------2---------------0---------|
E|----------------------------------|-------------------------------------|

We just have to say our love was true but is now become a lie…


e|-------------0--------------------|--------------2---------------------|
B|----------------------------------|-------------------2-3--------------|
G|----------2----2---------4--------|-----------2---------2--------------|
D|-------0---------------6-------2--|--------4------------4--------------|
A|---------------------4------------|---------------------2--------------|
E|----------------------------------|------------------------------------|


So I’m telling you I love you one last time… And goodbye…


e|-------0-----------------------|------------------------------0---|
B|----------------------2--------|-----3-----------------------0----|
G|-----2-----2------4------4--2--|----2-----------------------1-----|
D|--0----------------------------|---4-----------------------2------|
A|------------------4------------|--2-----------------------2-------|
E|-------------------------------|-------------------------0--------|

BRIDGE:
Just turn around and then walk away…
You don’t have to live like this…no…no…
But if you love me still, then stay…
Don’t keep me waiting for that final [-]kiss…
We can work together through this task or we can work through it apart…
I just need to get this off my chest that you will always have my heart…
Let me be the one…

REPEAT CHORUS
AND INTRO

Note: hey friends kung gsto nyo makausap ang taong gumawa nito ako lng n man
gumawa email nyo lng ako or txt nyo ko 09279108756…….. hingi lng kayo sakin
ng kahit anong tabs………………….

To play the most songs, including Let Me Be the One by Jimmy Bondoc by ukulele, the most crucial basic ukulele chords to learn are C chord, D chord, G chord, and Em chord.
These set you up to play a ton of songs, and each of them is easy to master.

Gravatar Image
Like to play Ukulele and Sudoku Game

Leave a Reply

Your email address will not be published. Required fields are marked *