Let’s Go Back by Everyday Sunday Ukulele Chords

Posted on

If you are searching for Let’s Go Back ukulele chords, you’ve visit to the right place.
You can play versatile instrument Let’s Go Back using ukulele or guitar.
This song by Everyday Sunday can also be played by that instruments.
=

Let’s Go Back chords has rhythm and included in Wake Up! Wake Up! (2007) album.
You can also get other musical style, including jazz ukulele chords, country music ukulele chords, pop ukulele chords, world music ukulele chords, and rock ukulele chords here.

Let’s Go Back by Everyday Sunday Ukulele Chords


Standard Tuning

Intro:


e---------------------------------6--|
B----6-8--------------6-8---9-8-9----|
G--8-------5-7------8----------------|
D--------------8---------------------|
A------------------------------------|
E------------------------------------|

then
Guitar 1: (this is also the chorus riff)


e--6-------6------------------------|
B----9-8-----9-8---6-8-----6-8------|
G----------------------8-------8----|
D-----------------------------------| x2
A-----------------------------------|
E-----------------------------------|

Guitar 2:


e--6----4----8-----6-------------|
B--8----4----8-----6-------------|
G--8----5----8-----8-------------|
D--8----6----10----8-------------|
A--6----6----10----8-------------|
E--6----4----8-----6-------------|

Verse 1:
I know that you, you are busy living your own life
I can’t make you, make you give me all of your time
But I just wish it could be like it was yesterday
I think it stinks that these stupid problems got in the way
So let’s go back now to the times that were fun
I’m so sick of the lies that someone else’s mind has won
I don’t care what they think, I don’t care who all cares

I just don’t want you to leave

Chorus (Guitar 2):
So tell me what you are and
I’ll tell you you’re so much more than
Anything you thought that you could be

(repeat)

Verse 2:
So get your car, I’ll meet you sometime tonight
I don’t care what we do, we can get in a fight
I’m so tired of living in this small, enclosed can
So let me out, we’ll have some fun, I’ll let you let me make the plans
Why are we waiting on someone else to tell us
How it should be, I’ve all ready found it,
And God didn’t tell me to waste these dreams

Chorus

Bridge:

I see you trying so hard to run the race to the finish line
But all this stuff keeps getting in the way

(repeat)

Chorus

Outro:
Guitar 1:


e----------6---8-6--------------------|
B----6-8-----9---------6-8---9-8-6----|
G--8-----------------8----------------|
D-------------------------------------|
A-------------------------------------|
E-------------------------------------|

Guitar 2:


e--6-6-6---4-4-4----8--8--8------4-4-6-----------------|
B--8-8-8---4-4-4----8--8--8------4-4-6-----------------|
G--8-8-8---5-5-5----8--8--8------5-5-7-----------------|
D--8-8-8---6-6-6----10-10-10-----6-6-8-----------------|
A--6-6-6---6-6-6----10-10-10-----6-6-8-----------------|
E--6-6-6---4-4-4----8--8--8------4-4-6-----------------|

Chords:
D# G# Cm or Cm A# D G


e--6----4----8-----3-----6----5----3---------|
B--8----4----8-----4-----6----7----3---------|
G--8----5----8-----5-----8----7----4---------|
D--8----6----10----5-----8----7----5---------|
A--6----6----10----3-----8----5----5---------|
E--6----4----8-----3-----6----5----3---------|

I notice a lack of accurate Everyday Sunday tabs here, so I’ll add some more soon.
I hope you enjoy, and God Bless!
-James

To play the most songs, including Let’s Go Back by Everyday Sunday by ukulele, the most crucial basic ukulele chords to learn are C chord, D chord, G chord, and Em chord.
These set you up to play a ton of songs, and each of them is easy to learn.

Gravatar Image
Like to play Ukulele and Sudoku Game

Leave a Reply

Your email address will not be published. Required fields are marked *