Litterbug by Dick Valentine Ukulele Chords

Posted on

If you are looking for Litterbug ukulele chords, you already come to the right site.
You can play versatile instrument Litterbug using ukulele or guitar.
This song by Dick Valentine can also be played by that instruments.
=

Litterbug chords has rhythm and included in Halloween Fingers (2013) album.
You can also find other musical style, including jazz ukulele chords, country music ukulele chords, pop ukulele chords, world music ukulele chords, and rock ukulele chords here.

Litterbug by Dick Valentine Ukulele Chords


-------------------------------------------------------------------------------

Litterbug – Dick Valentine


-------------------------------------------------------------------------------

Album: Halloween Fingers
Tabbed by: Mel
E-mail: melectricsix@gmail.com

(intro)


e|----------------------------------------------------------------------|
B|--------------------------0-------------0-------3-----------0---------|
G|------0-----0-0---------2-2--2---0------0-----0-0---------2-2--2---0--|
D|--------0-------0-----2--------2----------0-------0-----2--------2----|
A|----2-------------0-0------------------2------------0-0---------------|
E|--0-------3--------------------------0-------3------------------------|

Another simulation that you walk me through
But the taste in your mouth ain’t good enough for you
Spray a can of Raid until it turns ya blue
Whats a litter bug like me to do

This love wont bio degrade for a thousand years
Don’t waste this moment with recycled fears
We can make this day that you rue

You mess with the litterbug
The litterbug ain’t a mess like you

Oh
Oh

Do you like it toxic, do you like it clean
I’m a job creator babe and my jobs aint green
The Primrose Path is paved with polystyrene
By a coal burning machine

Enough of your mother earth crying hippy tears
So get a burma-shave with organic sheers
She should shave her armpits too

Try to step on the litterbug
The litterbug steps away from you

Oh
Oh
Oh
Oh

(itnro)
Put a time cap on your cabin train
Protect all of the creatures in the everglades
Build your windmills till you're donkeyhotey
But your running out of things to do and say

It’s been a real gas but I must skurry away
May we meet again on garbage day
Don’t mind me if I lawyer up and sue

Don’t worry about the litterbug
Cause the litterbug ain’t going to worry about you

Oh
Oh
Oh
Oh

To play the most songs, including Litterbug by Dick Valentine by ukulele, the most crucial basic ukulele chords to learn are C chord, D chord, G chord, and Em chord.
These set you up to play a ton of songs, and each of them is easy to master.

Gravatar Image
Like to play Ukulele and Sudoku Game

Leave a Reply

Your email address will not be published. Required fields are marked *