Louise by NOFX Ukulele Chords

Posted on

If you are searching for Louise ukulele chords, you’ve visit to the right site.
You can play versatile instrument Louise using ukulele or guitar.
This song by NOFX can also be played by that instruments.
=

Louise chords has rhythm and included in Pump Up the Valuum (2000) album.
You can also find other musical genres, including jazz ukulele chords, country music ukulele chords, pop ukulele chords, world music ukulele chords, and rock ukulele chords here.

Louise by NOFX Ukulele Chords

LOUISE – NOFX

Tabbed By Spina

Verse:


e-|------------------------|-----------------------|
B-|------------------------|-----------------------|
G-|--------7--9----7--5----|--------7--9-----------|
D-|--2--5--7--9-5--7--5--5-|--2--5--7--9--5--7--2--|
A-|--2--5--5--7-5--5--3--5-|--2--5--5--7--5--7--2--|
E-|--0--3-------3--------3-|--0--3--------3--5--0--|

Chorus:


e-|---------------------------------------------|
B-|---------------------------------------------|
G-|-----5--7--4-----5-----7--5-5--7-7--5-----7--|
D-|--2--5--7--4--2--5--5--7--5-5--7-7--5--5--7--|
A-|--2--3--5--2--2--3--5--5--3-3--5-5--3--5--5--|
E-|--0-----------0-----3------------------3-----|

Solo: (Play all Slide very fast)


e-|-----------------------------------------------------------------13--
B-|-----------------------------------------------------------15-13-----
G-|-------------------------------------13--------------15-13-----------
D-|-------------------13-10-13/15/13-10----10---13/15-13----------------
A-|-11/13-13-11/13~~~---------------------------------------------------
E-|---------------------------------------------------------------------
e-|-15-17---------------------------------------------------------------
B-|-------15-17---------------------------------------------------------
G-|-------------15-17--------------------15---15------------------------
D-|-------------------15-17--13-13/10/13---13----13h15b-----------------
A-|-----------------------------------------------------13-13-16/13p11--
E-|---------------------------------------------------------------------
e-|------------------------------|
B-|------------------------------|
G-|--------------------15-13-15--|
D-|------------------------------|
A-|-13--13-13-11/13/11-----------|
E-|------------------------------|

Bridge:


e-|-------------|
B-|-------------|
G-|----5--------|
D-|-7--5--5--2--|
A-|-7--3--5--2--|
E-|-5-----3--0--|

End:


e-|----------|
B-|----------|
G-|----------|
D-|-6--3--6--|
A-|-6--3--6--|
E-|-4--1--4--|

Legend:
/ Slide
b Bend
p Pull Off
h Hammer On
~ Vibrato

Guitar 1: Guitar 2:
Verse Verse
Chorus Chorus
Verse Verse
Chorus Chorus
Solo Verse
Bridge(x2) Bridge (x2)
Verse Verse
Chorus Chorus

To play the most songs, including Louise by NOFX by ukulele, the most crucial basic ukulele chords to learn are C chord, D chord, G chord, and Em chord.
These set you up to play a many of songs, and each of them is easy to master.

Leave a Reply

Your email address will not be published.