Love in Stereo by Warrant Ukulele Chords

Posted on

If you are looking for Love in Stereo ukulele chords, you have visit to the best place.
You can play versatile instrument Love in Stereo using ukulele or guitar.
This song by Warrant can also be played by that instruments.
=

Love in Stereo chords has rhythm and included in album.
You can also find another musical style, including jazz ukulele chords, country music ukulele chords, pop ukulele chords, world music ukulele chords, and rock ukulele chords here.

Love in Stereo by Warrant Ukulele Chords


Song:Love In Stereo
Artist:Warrant
Written By:Jani Lane
Album:Cherry Pie
Tuning:Half Step Down

Chords:
G-320033
D-xx0232
A-x0222x
E5-022xxx
E5(type 2)-xxxx00
A5-x022xx
D5-x577xx
D(type 2)-xx777x
E5(type 3)-0799xx
A5(type 2)-577xxx
B5-x244xx
D5(type 2)-xx023x
A5(type 3)-x02xxx

Intro
Fast Rock Q160

G[4/4]tr II
| | | |
Gtr I[/][/][/][/]


|---|----------------|---------------|----------------|-------3-(3)-2----|
|---|----------------|---3------5----|----------------|---3---3-(3)-3----|
|---|--------------3h|4----4s6------|--------------3h|4-----0-(0)-2----|
|-2-|-(2)--4--5------|-------------2-|-(2)--4--5------|-------0-(0)-0--2-|
|-0-|-(0)--0--0------|-------------0-|-(0)--0--0------|-------2-(2)----0-|
|---|----------------|---------------|----------------|-------3-(3)------|

| | | | | | | | | |
/ / / / / o / o o /


|----------------|-------------------|-----------------|------------------||
|----------------|-----3------5------|-----------------|-------3--(3)---2-||
|--------------3h|4-----4s6--------|-----------------|-----0----------2-||
|-(2)--4--5------|-----------------2-|-(2)--4--5----/4-|-(4)------------2-||
|-(0)--0--0------|-----------------0-|-(0)--0--0-------|----------------0-||
|----------------|-------------------|-----------------|------------------||

1st Verse


|-----------------|---------3-(3)-3---2-|-(2)-2---------2-|-(2)-2----------|
|-(2)-2---------2-|-(2)-2---3-(3)-3---3-|-(3)-3---------3-|-(3)-3---------2|
|-(2)-2---------2-|-(2)-2---0-(0)-0---2-|-(2)-2---------2-|-(2)-2---------2|
|-(2)-2---------2-|-(2)-2---0-(0)-0---0-|-(0)-0---------0-|-(0)-0---------2|
|-(0)-0---------0-|-(0)-0---2-(2)-2-----|-----------------|---------------0|
|-----------------|---------3-(3)-3-----|-----------------|----------------|


|-----------------|---------3-(3)-3---2-|-(2)-2---------2-|-(2)-2----------|
|-(2)-2---------2-|-(2)-2---3-(3)-3---3-|-(3)-3---------3-|-(3)-3---------2|
|-(2)-2---------2-|-(2)-2---0-(0)-0---2-|-(2)-2---------2-|-(2)-2---------2|
|-(2)-2---------2-|-(2)-2---0-(0)-0---0-|-(0)-0---------0-|-(0)-0---------2|
|-(0)-0---------0-|-(0)-0---2-(2)-2-----|-----------------|---------------0|
|-----------------|---------3-(3)-3-----|-----------------|----------15---|


PM------| PM PM
|-------------------|---------3-(3)-3---2-|
|-(2)-2-----------2-|-(2)-2---3-(3)-3---3-|
|-(2)-2-----------2-|-(2)-2---0-(0)-0---2-|
|-(2)-2-2-2-2-2-2-2-|-(2)-2-2-0-(0)-0---0-|
|-(0)-0-0-0-0-0-0-0-|-(0)-0-0-2-(2)-2-----|
|-------------------|---------3-(3)-3-3---|


PM------| PM------|
|-(2)-2-----------2-|-(2)-2--------------|
|-(3)-3-----------3-|-(3)-3-----------2--|
|-(2)-2-2-2-2-2-2-2-|-(2)-2-2-2-2-2-2-2--|
|-(0)-0-0-0-0-0-0-0-|-(0)-0-0-0-0-0-0-2--|
|-------------------|-----------------0--|
|-------------------|--------------------|


PM------| PM PM
|-------------------|---------3-3-3---2-|
|-(2)-2-----------2-|-(2)-2---3-3-3---3-|
|-(2)-2-----------2-|-(2)-2---0-0-0---2-|
|-(2)-2-2-2-2-2-2-2-|-(2)-2-2-0-0-0---0-|
|-(0)-0-0-0-0-0-0-0-|-(0)-0-0-2-2-2-----|
|-------------------|---------3-3-3-3---|


PM------| PM------|
|-(2)-2-----------2-|-(2)-2--------------||
|-(3)-3-----------3-|-(3)-3--------------||
|-(2)-2-2-2-2-2-2-2-|-(2)-2-2-2-2-2-2----||
|-(0)-0-0-0-0-0-0-0-|-(0)-0-0-0-0-0-0-2--||
|-------------------|-----------------2--||
|-------------------|-----------------0--||

Pre Chorus
~ ~ ~ ~


|-------------0-----|-----------------|-------------0----|-2-2-2-------3--||
|-------------0-----|-----------------|-------------0----|-3-3-3-2-(2)-3--||
|-------------------|-----------------|------------------|-2-2-2-2-(2)-0-7||
|-(2)-2-------------|------2-(2)----2-|-(2)-----------2--|-0-0-0-2-(2)-0-7||
|-(2)-2---2-2-----2-|---2--0-(0)----2-|-(2)-2---2-2---2--|-------0-(0)-2-5||
|-(0)-0-3-0-0-----0-|-3-0---------3-0-|-(0)-0-3-0-0---0--|-------------3--||

Chorus
$


|----------------|-----------------3-|-(3)--------|---2--------3-----|
|---------7------|-----------------3-|-(3)--------|---3--2-(2)-3-----|
|-7-7-----7----(b9)|-(9)-(b9)-----(b9)---0-|-(0)--------|---2--2-(2)-0--7--|
|-7-7-----7----(b9)|-(9)-(b9)-----(b9)---0-|-(0)--------|---0--2-(2)-0--7--|
|-5-5-7s(b9)-------|-------9s11------2-|-(2)--------|------0-(0)-2--5--|
|----------------|-----------------3-|-(3)--------|------------3-----|


|----------------|-----------------3-|-(3)--------|----------------|
|---------7------|-----------------3-|-(3)--------|----------------|
|-7-7-----7----(b9)|-(9)-(b9)-----(b9)---0-|-(0)--------|---7----7----4--|
|-7-7-----7----(b9)|-(9)-(b9)-----(b9)---0-|-(0)--------|---7--7-7----4--|
|-5-5-7s(b9)-------|-------9s11------2-|-(2)--------|---5--7-5----2--|
|----------------|-----------------3-|-(3)--------|------5---------|

To Coda


|------------|----------------|-------------||
|------------|----------------|-----------2-||
|-(4)--------|-(4)------(4)---|-----------2-||
|-(4)--------|-(4)------(4)-2-|-----------2-||
|-(2)--------|-(2)------(2)-2-|-----------0-||
|------------|--------------0-|-------------||

2nd Verse


|-----------------|---------3-(3)-3---2-|-(2)-2---------2-|-(2)-2----------|
|-(2)-2---------2-|-(2)-2---3-(3)-3---3-|-(3)-3---------3-|-(3)-3-------2--|
|-(2)-2---------2-|-(2)-2---0-(0)-0---2-|-(2)-2---------2-|-(2)-2-------2--|
|-(2)-2---------2-|-(2)-2---0-(0)-0---0-|-(0)-0---------0-|-(0)-0-------2--|
|-(0)-0---------0-|-(0)-0---2-(2)-2-----|-----------------|-------------0--|
|-----------------|---------3-(3)-3-----|-----------------|----------------|


PM------| PM PM
|-------------------|---------3-3-3---2-|
|-(2)-2-----------2-|-(2)-2---3-3-3---3-|
|-(2)-2-----------2-|-(2)-2---0-0-0---2-|
|-(2)-2-2-2-2-2-2-2-|-(2)-2-2-0-0-0---0-|
|-(0)-0-0-0-0-0-0-0-|-(0)-0-0-2-2-2-----|
|-------------------|---------3-3-3-3---|


PM------| PM------|
|-(2)-2-----------2-|-(2)-2--------------||
|-(3)-3-----------3-|-(3)-3--------------||
|-(2)-2-2-2-2-2-2-2-|-(2)-2-2-2-2-2-2----||
|-(0)-0-0-0-0-0-0-0-|-(0)-0-0-0-0-0-0-2--||
|-------------------|-----------------2--||
|-------------------|-----------------0--||

Pre Chorus
D.S. al Coda
~ ~ ~ ~


|-------------0-----|-----------------|-------------0----|-2-2-2-------3--||
|-------------0-----|-----------------|-------------0----|-3-3-3-2-(2)-3--||
|-------------------|-----------------|------------------|-2-2-2-2-(2)-0-7||
|-(2)-2-------------|------2-(2)----2-|-(2)-----------2--|-0-0-0-2-(2)-0-7||
|-(2)-2---2-2-----2-|---2--0-(0)----2-|-(2)-2---2-2---2--|-------0-(0)-2-5||
|-(0)-0-3-0-0-----0-|-3-0---------3-0-|-(0)-0-3-0-0---0--|-------------3--||

Guitar Solo
&
N.C. E5
Gtr I
|
[/]
Gtr II


|----------|-------------------|
|----------|------------14b15|
|----------|-------------------|
|----------|-------------------|
|----------|-------------------|
|----------|-------------------|

| | | | | | | | | | | |
/ / o / / / o / / / o /

~~~~~~~~~


|-------------------------|---------------------------|
|-(14)-----------(14)r-12-|-(12)------(12)/----15b17--|
|-------------------------|---------------------------|
|-------------------------|---------------------------|
|-------------------------|---------------------------|
|-------------------------|---------------------------|

| | | | | | |
/ / o / / / /


|------12-------------------------------------------|
|-(15)----15p12-------------------------------------|
|---------------15p14p12----14----12h13-------------|
|------------------------14----14-------14p12----14-|
|---------------------------------------------14----|
|---------------------------------------------------|

| | | | | | | | | | | |
o / / / o / / / o / / /

~~~~~~~ PM| ~ PM| ~~~~~~ PM|
+E S S E E +Q E E +S S E Q S S E +E S S


|--------------------------------|-------------------------------|
|--------------------------------|-------------------------------|
|--------------------------11b12-|-(11)------(b9)-------(b9)(9)------|
|-(14)---------------------------|------x-11-----(b9)11-------11-(b9)|
|------17p14-12-12-(12)----------|-------------------------------|
|--------------------------------|-------------------------------|

| | | | | | | | | | | | |
o / / / o / / / o / / / /

~ ~~~
|–3—|


|----------------------------------15-|-(15)-------------------------------|
|----------------------------------15-|-(15)--------------------17---------|
|-11b12-11b12(11)r(11)p(b9)11-(b9)------|--------17b20r(17)p15----------19s20|
|-------------------------------11----|----------------------16------------|
|-------------------------------------|------------------------------------|
|-------------------------------------|------------------------------------|

| | | | | |
o / / / o /

~~~


|----------------------------------22--------|
|-22b24-(22)-22b24-(22)-22b24-(22)-----------|
|--------------------------------------------|
|--------------------------------------------|
|--------------------------------------------|
|--------------------------------------------|

Piano Solo

| | | | [2/4] |
o / / / /

Gtr II
Wx7


|------------|-----------20b22(20)--|-(20)r-1(b9)(19)-18-|
|------------|------------------------|------------------|
|------------|------------------------|------------------|
|------------|------------------------|------------------|
|------------|------------------------|------------------|
|------------|------------------------|------------------|

[4/4] +H. E E
| | |
[/] [/] [/]


|-3-| |--3--|
|-17--18-1(b9)18-17----17----------------------|
|-----------------20----20p17------------17--|
|-----------------------------18b20-(18)-----|
|--------------------------------------------|
|--------------------------------------------|
|--------------------------------------------|

Gtr I


|-------------------------------|--------------------------|
|-------------------------------|-----3-------------5------|
|-----------------------------3h|4------4s6---------|
|--2-------4---------5----------|-----------------------2--|
|--0-------0---------0----------|-----------------------0--|
|-------------------------------|--------------------------|

|
| Gtr II
|
|


|-------------------------------|--------b7(5)----(5)-|
|-20b22r(20)p17h20p17---(17)---|--------------------------|
|-----------------------------7-|-(7)----------------------|
|-------------------------------|--------------------------|
|-------------------------------|--------------------------|
|-------------------------------|--------------------------|


|----------------|---------3-(3)-2----|
|----------------|------3--3-(3)-3----|
|--------------3h|4------0-(0)-2----|
|-(2)--4--5------|---------0-(0)-0--2-|
|-(0)--0--0------|---------2-(2)----0-|
|----------------|---------3-(3)------|

|
| ~~~~~~~~~~~~~~~~~~~~~
|


|-(5)------------|-(5)r---------------|
|----------------|--------------------|
|----------------|--------------------|
|----------------|--------------------|
|----------------|--------------------|
|----------------|--------------------|


|----------------|---------------|-----------------|-------------------||
|----------------|---3------5----|-----------------|-------3--(3)---2--||
|--------------3h|4----4s6------|-----------------|-----0----------2--||
|-(2)--4--5------|-------------2-|-(2)--4--5----/4-|-(4)------------2--||
|-(0)--0--0------|-------------0-|-(0)--0--0-------|----------------0--||
|----------------|---------------|-----------------|-------------------||

3rd Verse


|-----------------|---------3-(3)-3---2-|-(2)-2---------2-|-(2)-2----------|
|-(2)-2---------2-|-(2)-2---3-(3)-3---3-|-(3)-3---------3-|-(3)-3---------2|
|-(2)-2---------2-|-(2)-2---0-(0)-0---2-|-(2)-2---------2-|-(2)-2---------2|
|-(2)-2---------2-|-(2)-2---0-(0)-0---0-|-(0)-0---------0-|-(0)-0---------2|
|-(0)-0---------0-|-(0)-0---2-(2)-2-----|-----------------|---------------0|
|-----------------|---------3-(3)-3-----|-----------------|----------------|


|-----------------|---------3-(3)-3---2-|-(2)--2--(2)-2----|-2-3-3-3-3-2--||
|-(2)-2---------2-|-(2)-2---3-(3)-3---3-|-(3)--3--(3)-3----|-3-3-3-3-3-3--||
|-(2)-2---------2-|-(2)-2---0-(0)-0---2-|-(2)--2--(2)-2----|-2-----------7||
|-(2)-2---------2-|-(2)-2---0-(0)-0---0-|-(0)--0--(0)-0----|-0-----------7||
|-(0)-0---------0-|-(0)-0---2-(2)-2-----|------------------|-------------5||
|-----------------|---------3-(3)-3-----|------------------|--------------||

Chorus


|----------------|-----------------3-|-(3)--------|----------------|
|---------7------|-----------------3-|-(3)--------|---3--3-3-------|
|-7-7-----7----(b9)|-(9)-(b9)-----(b9)---0-|-(0)--------|---2--2-2----7--|
|-7-7-----7----(b9)|-(9)-(b9)-----(b9)---0-|-(0)--------|---0--0-0----7--|
|-5-5-7s(b9)-------|-------9s11------2-|-(2)--------|-------------5--|
|----------------|-----------------3-|-(3)--------|----------------|


|----------------|-----------------3-|-(3)--------|---2--------3-----|
|---------7------|-----------------3-|-(3)--------|---3--2-(2)-3-----|
|-7-7-----7----(b9)|-(9)-(b9)-----(b9)---0-|-(0)--------|---2--2-(2)-0--7--|
|-7-7-----7----(b9)|-(9)-(b9)-----(b9)---0-|-(0)--------|---0--2-(2)-0--7--|
|-5-5-7s(b9)-------|-------9s11------2-|-(2)--------|------0-(0)-2--5--|
|----------------|-----------------3-|-(3)--------|------------3-----|


|----------------|-----------------3-|-(3)--------|----------------|
|---------7------|-----------------3-|-(3)--------|---3--3-3-------|
|-7-7-----7----(b9)|-(9)-(b9)-----(b9)---0-|-(0)--------|---2--2-2----7--|
|-7-7-----7----(b9)|-(9)-(b9)-----(b9)---0-|-(0)--------|---0--0-0----7--|
|-5-5-7s(b9)-------|-------9s11------2-|-(2)--------|-------------5--|
|----------------|-----------------3-|-(3)--------|----------------|


|----------------|-----------------3-|-(3)--------|----------------||
|---------7------|-----------------3-|-(3)--------|---3--3-3-------||
|-7-7-----7----(b9)|-(9)-(b9)-----(b9)---0-|-(0)--------|---2--2-2----4--||
|-7-7-----7----(b9)|-(9)-(b9)-----(b9)---0-|-(0)--------|---0--0-0----4--||
|-5-5-7s(b9)-------|-------9s11------2-|-(2)--------|-------------2--||
|----------------|-----------------3-|-(3)--------|----------------||

Outro


|--------------|------------------------|-----------------|
|--------------|------------------------|-----------------|
|-(4)----------|-(4)--------------(4)---|-------(b9)---(b9)---|
|-(4)----------|-(4)--------------(4)---|-------(b9)---(b9)---|
|-(2)----------|-(2)--------------(2)---|-------7----7----|
|--------------|----------------------0-|-(0)-0----0----0-|

|
| Gtr II
| ~~~~~~~~~~~~~~
|


|--------------|------------------------|-----------------|
|--------------|------------------------|-----------------|
|------4-------|-(4)--------------------|-----------------|
|--------------|------------------------|-----------------|
|--------------|-------/14-(14)--------|-----------------|
|--------------|------------------------|-----------------|


|------------------|--------------|-----------------|
|------------------|--------------|-----------------|
|-(b9)---(b9)(9)---(b9)(b9)|----(b9)---(b9)---|-(b9)---(b9)(9)------|
|-(b9)---(b9)(9)---(b9)(b9)|----(b9)---(b9)---|-(b9)---(b9)(9)----2-|
|-7----7-(7)---7-7-|----7----7----|-7----7-(7)----0-|
|----0-------0-----|-0-----0----0-|----0-------0----|


|----------------|---------------|----------------|-----------|
|----------------|---3------5----|----------------|-----3-----|
|--------------3s|4----4s6------|----------------|---0-------|
|-(2)--4--5------|-------------2-|-(2)--4--5----2h|4---------|
|-(0)--0--0------|-------------0-|-(0)--0--0------|-----------|
|----------------|---------------|----------------|-----------|

N.C.
~~ ~
|-3-|


|----------------|-------------|------|
|----------------|-------------|------|
|----------------|-------------|------|
|---------0------|-------------|------|
|---3p2p0---3----|-------------|------|
|----------------|-2-3-4-5-----|------|

Please rate

To play the this songs, including Love in Stereo by Warrant by ukulele, the most important basic ukulele chords to learn are C chord, D chord, G chord, and Em chord.
These set you up to play a a lot of songs, and each of them is easy to learn.

Gravatar Image
Like to play Ukulele and Sudoku Game

Leave a Reply

Your email address will not be published. Required fields are marked *