Made My Bed, Gonna Lie in It by Ukulele Chords

Posted on

If you are searching for Made My Bed, Gonna Lie in It ukulele chords, you have visit to the best place.
You can play versatile instrument Made My Bed, Gonna Lie in It using ukulele or guitar.
This song by can also be played by that instruments.
=

Made My Bed, Gonna Lie in It chords has rhythm and included in Good Friday (1967) album.
You can also get other musical genres, including jazz ukulele chords, country music ukulele chords, pop ukulele chords, world music ukulele chords, and rock ukulele chords here.

Made My Bed, Gonna Lie in It by Ukulele Chords


----------------------------------------------------------------

THE EASYBEATS – MADE MY BED GONNA LIE IN IT (Vanda/Young) From
FRIDAY ON MY MIND album. Released in 1967.


----------------------------------------------------------------

Tabbed by:PJVillanueva

Tried so hard to be a man, a man, a man

I made my bed now I’m gonna lie in it
Seems instead like I’m gonna die in it

Where did I go wrong
I tried so hard to see
I tried so hard to be a man, a man, a man

You’ve seen my face, me I really don’t mind it
They all laugh but I didn’t design it

Where did I go wrong
I tried so hard to see
I tried so hard to be a man, a man, a man
Made my bed now I’m gonna lie in it
Made my bed now I’m gonna lie in it

I didn’t know my Ma
Didn’t see my Pa,
How can you understand
When you’re the son of no man, no man

Made my bed now I’m gonna lie in it
Made my bed now I’m gonna lie in it
Made my bed now I’m gonna lie in it

Tried so hard to be a man,

a man,


e|0------ 0------ 0------ 0------|0------ 0------ 0------ 0------|
B|0-------0-------0-------0------|0-------0-------0-------0------|
G|1-------1-------1-------1------|1-------1-------1-------1------|
D|2-------2-------2-------2------|2-------2-------2-------2------|
A|-------------------------------|-------------------------------|
E|-------------------------------|-------------------------------|


e|5------ 5------ 5------ 5------|5------ 5------ 5------ 5------|
B|5-------5-------5-------5------|5-------5-------5-------5------|
G|6-------6-------6-------6------|6-------6-------6-------6------|
D|5-------5-------5-------5------|5-------5-------5-------5------|
A|7-------7-------7-------7------|7-------7-------7-------7------|
E|-------------------------------|-------------------------------|

I

X x X X x X X X x X X x


e|------- ------- ------- -------|------- ------- ------- -------|
B|-------------------------------|-------------------------------|
G|7------------------------------|-------------------------------|
D|-------------------------------|-------------------------------|
A|5------------------------------|-------------------------------|
E|-------------------------------|-------------------------------|

made my bed now I’m gonna lie in it

X x X X x X X X x X X x


e|------- ------- ------- -------|------- ------- ------- -------|
B|-------------------------------|-------------------------------|
G|-------------------------------|-------------------------------|
D|-------------------------------|-------------------------------|
A|5--3---3---3---3-/-8---8---8--|8---9---9---9------------------|
E|-------------------------------|-------------------------------|
e|------- ------- ------- -------|------- ------- ------- -------|
B|-------------------------------|-------------------------------|
G|7--5---5---------------10--10-|10--11------11-----------------|
D|-------------------------------|-------------------------------|
A|-------------------------------|-------------------------------|
E|-------------------------------|-------------------------------|

X x X X x X X X x X X x


e|------- ------- ------- -------|------- ------- ------- -------|
B|-------------------------------|-------------------------------|
G|-------------------------------|-------------------------------|
D|-------------------------------|-------------------------------|
A|-------------------------------|-------------------------------|
E|-------------------------------|-------------------------------|

Seems instead like I’m gonna die in it

X x X X x X X X x X X x


e|------- ------- ------- -------|------- ------- ------- -------|
B|-------------------------------|-------------------------------|
G|-------------------------------|-------------------------------|
D|-------------------------------|-------------------------------|
A|5--3---3---3---3-/-8---8---8--|8---9-/-9---9------------------|
E|-------------------------------|-------------------------------|
e|------- ------- ------- -------|------- ------- ------- -------|
B|-------------------------------|-------------------------------|
G|7--5---------------10--10--10-|1010/11-----11-----------------|
D|-------------------------------|-------------------------------|
A|-------------------------------|-------------------------------|
E|-------------------------------|-------------------------------|


e|------- ------- ------- -------|------- ------- ------- -------|
B|7-------7---5-/-7---7---7---5-/|7---7---7---5-/-7---7---7---5--|
G|8-------8---6-/-8---8---8---6-/|8---8---8---6-/-8---8---8---6--|
D|9-------9---7-/-9---9---9---7-/|9---9---9---7-/-9---9---9---7--|
A|9-------9---7-/-9---9---9---7-/|9---9---9---7-/-9---9---9---7--|
E|7-------7---5-/-7---7---7---5-/|7---7---7---5-/-7---7---7---5--|

Where did I go wrong I


e|------- 7------ ------- 7------|------- 7------ ------- 7------|
B|--------7---------------7------|--------7---------------7------|
G|--------8---------------8------|--------8---------------8------|
D|--------9---------------9------|--------9---------------9------|
A|--------9---------------9------|--------9---------------9------|
E|--------7---------------7------|--------7---------------7------|


e|------- ------- ------- -------|------- ------- ------- -------|
B|5---5---5---3-/-5---5---5---3-/|5-------5---3-/-5---5---5---3--|
G|6---6---6---4-/-6---6---6---4-/|6-------6---4-/-6---6---6---4--|
D|7---7---7---5-/-7---7---7---5-/|7-------7---5-/-7---7---7---5--|
A|7---7---7---5-/-7---7---7---5-/|7-------7---5-/-7---7---7---5--|
E|5---5---5---3-/-5---5---5---3-/|5-------5---3-/-5---5---5---3--|

tried so hard to see I


e|------- 5------ ------- 5------|------- 5------ ------- 5------|
B|--------5---------------5------|--------5---------------5------|
G|--------6---------------6------|--------6---------------6------|
D|--------7---------------7------|--------7---------------7------|
A|--------7---------------7------|--------7---------------7------|
E|--------5---------------5------|--------5---------------5------|


e|------- ------- ------- -------|------- ------- ------- -------|
B|3---3---3---1-/-3---3---3---1-/|3-------3---1-------3---3------|
G|4---4---4---2-/-4---4---4---2-/|4-------4---2-------4---4------|
D|5---5---5---3-/-5---5---5---3-/|5-------5---3-------5---5------|
A|5---5---5---3-/-5---5---5---3-/|5-------5---3-------5---5------|
E|3---3---3---1-/-3---3---3---1-/|3-------3---1-------3---3------|

tried so hard to be a Man,


e|------- 3------ ------- 3------|------- 3------ ------- 3------|
B|--------3---------------3------|--------3---------------3------|
G|--------4---------------4------|--------4---------------4------|
D|--------5---------------5------|--------5---------------5------|
A|--------5---------------5------|--------5---------------5------|
E|--------3---------------3------|--------3---------------3------|


e|------- ------- ------- -------|------- ------- ------- -------|
B|-------------------------------|-------------------------------|
G|7-------7---7---7---7---7---7--|7---7---7---7---7---7---7------|
D|7-------7---7---7---7---7---7--|7---7---7---7---7---7---7------|
A|5-------5---5---5---5---5---5--|5---5---5---5---5---5---5------|
E|-------------------------------|-------------------------------|

a man,


e|------- 10----- ------- 10-----|------- 10----- ------- 10-----|
B|--------10--------------10-----|--------10--------------10-----|
G|--------11--------------11-----|--------11--------------11-----|
D|--------12--------------12-----|--------12--------------12-----|
A|--------12--------------12-----|--------12--------------12-----|
E|--------10--------------10-----|--------10--------------10-----|


e|0------ 0---0-- -----0- 0------|0------ 0------ 0------ 0------|
B|0-------0---0--------0--0------|0-------0-------0-------0------|
G|1-------1---1--------1--1------|1-------1-------1-------1------|
D|2-------2---2--------2--2------|2-------2-------2-------2------|
A|2-------2---2--------2--2------|2-------2-------2-------2------|
E|0-------0---0--------0--0------|0-------0-------0-------0------|

a man,


e|------- 0------ ----0-- 0------|------- 0------ ------- 0------|
B|--------0-----------0---0------|--------0---------------0------|
G|--------1-----------1---1------|--------1---------------1------|
D|--------2-----------2---2------|--------2---------------2------|
A|--------2-----------2---2------|--------2---------------2------|
E|--------0-----------0---0------|--------0---------------0------|


e|5------ 5------ ----5-- ----5--|5------ 5------ ----5-- -------|
B|5-------5-----------5-------5--|5-------5-----------5----------|
G|6-------6-----------6-------6--|6-------6-----------6----------|
D|7-------7-----------7-------7--|7-------7-----------7----------|
A|7-------7-----------7-------7--|7-------7-----------7----------|
E|5-------5-----------5-------5--|5-------5-----------5----------|

You’ve


e|------- 0------ ------- 0------|------- 0------ ------- 0------|
B|--------2---------------2------|--------2---------------2------|
G|--------2---------------2------|--------2---------------2------|
D|--------2---------------2------|--------2---------------2------|
A|--------0---------------0------|--------0---------------0------|
E|-------------------------------|-------------------------------|
e|------- ------- ------- -------|------- ------- ------- -------|
B|-------------------------------|-------------------------------|
G|-------------------------------|-------------------------------|
D|0---0---0---0---0---0---0---0--|0---0---0---0---0---0---0---0--|
A|5---5---5---5---5---5---5---5--|5---5---5---3---5---5---5---5--|
E|-------------------------------|-------------------------------|

seen my face, me I really don’t mind it


e|------- 5------ ------- 5------|------- 5------ ----3-- -------|
B|--------3---------------3------|--------3-----------2----------|
G|--------2---------------2------|--------2-----------2----------|
D|-------------------------------|-------------------------------|
A|-------------------------------|-------------------------------|
E|-------------------------------|-------------------------------|


e|------- ------- ------- -------|------- ------- ------- -------|
B|-------------------------------|-------------------------------|
G|-------------------------------|-------------------------------|
D|0---0---0---0---0---0---0---0--|0---0-------0------------------|
A|5---3---3---3---3---8---8---8--|8---9-------9------------------|
E|-------------------------------|-------------------------------|
e|------- 5------ ------- 5------|------- 5------ ----3-- -------|
B|--------3---------------3------|--------3-----------2----------|
G|--------2---------------2------|--------2-----------2----------|
D|-------------------------------|-------------------------------|
A|-------------------------------|-------------------------------|
E|-------------------------------|-------------------------------|


e|------- ------- ------- -------|------- ------- ------- -------|
B|-------------------------------|-------------------------------|
G|-------------------------------|-------------------------------|
D|0---0---0---0---0---0---0---0--|0---0---0---0---0---0---0---0--|
A|5---5---5---5---5---5---5---5--|5---5---5---3---5---5---5---5--|
E|-------------------------------|-------------------------------|

They all laugh but I didn’t design it


e|------- 5------ ------- 5------|------- 5------ ----3-- -------|
B|--------3---------------3------|--------3-----------2----------|
G|--------2---------------2------|--------2-----------2----------|
D|-------------------------------|-------------------------------|
A|-------------------------------|-------------------------------|
E|-------------------------------|-------------------------------|


e|------- ------- ------- -------|------- ------- ------- -------|
B|-------------------------------|-------------------------------|
G|-------------------------------|-------------------------------|
D|0---0---0---0---0---0---0---0--|0---0-------0------------------|
A|5---3---3---3---3---8---8---8--|8---9-------9------------------|
E|-------------------------------|-------------------------------|
e|------- 5------ ------- 5------|------- 5------ ----3-- -------|
B|--------3---------------3------|--------3-----------2----------|
G|--------2---------------2------|--------2-----------2----------|
D|-------------------------------|-------------------------------|
A|-------------------------------|-------------------------------|
E|-------------------------------|-------------------------------|


e|------- ------- ------- -------|------- ------- ------- -------|
B|7-------7---5-/-7---7---7---5-/|7---7---7---5-/-7---7---7---5--|
G|8-------8---6-/-8---8---8---6-/|8---8---8---6-/-8---8---8---6--|
D|9-------9---7-/-9---9---9---7-/|9---9---9---7-/-9---9---9---7--|
A|9-------9---7-/-9---9---9---7-/|9---9---9---7-/-9---9---9---7--|
E|7-------7---5-/-7---7---7---5-/|7---7---7---5-/-7---7---7---5--|

Where did I go wrong I


e|------- 7------ ------- 7------|------- 7------ ------- 7------|
B|--------7---------------7------|--------7---------------7------|
G|--------8---------------8------|--------8---------------8------|
D|--------9---------------9------|--------9---------------9------|
A|--------9---------------9------|--------9---------------9------|
E|--------7---------------7------|--------7---------------7------|


e|------- ------- ------- -------|------- ------- ------- -------|
B|5---5---5---3-/-5---5---5---3-/|5-------5---3-/-5---5---5---3--|
G|6---6---6---4-/-6---6---6---4-/|6-------6---4-/-6---6---6---4--|
D|7---7---7---5-/-7---7---7---5-/|7-------7---5-/-7---7---7---5--|
A|7---7---7---5-/-7---7---7---5-/|7-------7---5-/-7---7---7---5--|
E|5---5---5---3-/-5---5---5---3-/|5-------5---3-/-5---5---5---3--|

tried so hard to see I


e|------- 5------ ------- 5------|------- 5------ ------- 5------|
B|--------5---------------5------|--------5---------------5------|
G|--------6---------------6------|--------6---------------6------|
D|--------7---------------7------|--------7---------------7------|
A|--------7---------------7------|--------7---------------7------|
E|--------5---------------5------|--------5---------------5------|


e|------- ------- ------- -------|------- ------- ------- -------|
B|3---3---3---1-/-3---3---3---1-/|3-------3---1-------3---3------|
G|4---4---4---2-/-4---4---4---2-/|4-------4---2-------4---4------|
D|5---5---5---3-/-5---5---5---3-/|5-------5---3-------5---5------|
A|5---5---5---3-/-5---5---5---3-/|5-------5---3-------5---5------|
E|3---3---3---1-/-3---3---3---1-/|3-------3---1-------3---3------|

tried so hard to be a


e|------- 3------ ------- 3------|------- 3------ ------- 3------|
B|--------3---------------3------|--------3---------------3------|
G|--------4---------------4------|--------4---------------4------|
D|--------5---------------5------|--------5---------------5------|
A|--------5---------------5------|--------5---------------5------|
E|--------3---------------3------|--------3---------------3------|


e|------- ------- ------- -------|------- ------- ------- -------|
B|-------------------------------|-------------------------------|
G|7---7---7-------7---7---7---7--|7---7---7---7---7---7---7------|
D|7---7---7-------7---7---7---7--|7---7---7---7---7---7---7------|
A|5---5---5-------5---5---5---5--|5---5---5---5---5---5---5------|
E|--------7-B-8------------------|-------------------------------|

man a man,


e|------- 10----- ------- 10-----|------- 10----- ------- 10-----|
B|--------10--------------10-----|--------10--------------10-----|
G|--------11--------------11-----|--------11--------------11-----|
D|--------12--------------12-----|--------12--------------12-----|
A|--------12--------------12-----|--------12--------------12-----|
E|--------10--------------10-----|--------10--------------10-----|


e|0------ 0---0-- -----0- 0------|0------ 0------ 0------ 0------|
B|0-------0---0--------0--0------|0-------0-------0-------0------|
G|1-------1---1--------1--1------|1-------1-------1-------1------|
D|2-------2---2--------2--2------|2-------2-------2-------2------|
A|2-------2---2--------2--2------|2-------2-------2-------2------|
E|0-------0---0--------0--0------|0-------0-------0-------0------|

a man,


e|------- 0------ ----0-- 0------|------- 0------ ------- 0------|
B|--------0-----------0---0------|--------0---------------0------|
G|--------1-----------1---1------|--------1---------------1------|
D|--------2-----------2---2------|--------2---------------2------|
A|--------2-----------2---2------|--------2---------------2------|
E|--------0-----------0---0------|--------0---------------0------|


e|5------ 5------ ----5-- ----5--|5------ 5------ ----5-- -------|
B|5-------5-----------5-------5--|5-------5-----------5----------|
G|6-------6-----------6-------6--|6-------6-----------6----------|
D|7-------7-----------7-------7--|7-------7-----------7----------|
A|7-------7-----------7-------7--|7-------7-----------7----------|
E|5-------5-----------5-------5--|5-------5-----------5----------|
e|------- 0------ ------- 0------|------- 0------ ------- 0------|
B|--------2---------------2------|--------2---------------2------|
G|--------2---------------2------|--------2---------------2------|
D|--------2---------------2------|--------2---------------2------|
A|--------0---------------0------|--------0---------------0------|
E|-------------------------------|-------------------------------|


e|------- ------- ------- -------|------- ------- ------- -------|
B|-------------------------------|-------------------------------|
G|-------------------------------|-------------------------------|
D|7---7---7---7---7-------7---7--|7---7---7---7---7-------7------|
A|5---5---5---5---5-------5---5--|5---5---5---5---5-------5------|
E|-------------------------------|-------------------------------|

Made my bed now I’m gonna lie in it


e|------- 5------ ------- 5------|------- 5------ ----3-- -------|
B|--------3---------------3------|--------3-----------2----------|
G|--------2---------------2------|--------2-----------2----------|
D|-------------------------------|-------------------------------|
A|-------------------------------|-------------------------------|
E|-------------------------------|-------------------------------|


e|------- ------- ------- -------|------- ------- ------- -------|
B|-------------------------------|-------------------------------|
G|-------------------------------|-------------------------------|
D|7-------7---7---7-------7------|7-------7---7---7---7---7------|
A|5-------5---5---5-------5------|5-------5---5---5---5---5------|
E|-------------------------------|-------------------------------|
e|5-----5 5-----5 5-----5 5-----5|5-----5 5-----5 5-----5 5-----5|
B|3-----3-3-----3-3-----3-3-----3|3-----3-3-----3-3-----3-3-----3|
G|2-----2-2-----2-2-----2-2-----2|2-----2-2-----2-2-----2-2-----2|
D|-------------------------------|-------------------------------|
A|-------------------------------|-------------------------------|
E|-------------------------------|-------------------------------|


e|------- ------- ------- -------|------- ------- ------- -------|
B|-------------------------------|-------------------------------|
G|-------------------------------|-------------------------------|
D|----------------3---5---3-5/7--|------------5-------3----------|
A|5-----------5------------------|-------------------------------|
E|-------------------------------|-------------------------------|
e|------- ------- ------- -------|------- ------- ------- -------|
B|-------------------------------|-------------------------------|
G|-------------------------------|-------------------------------|
D|7---7---7---7---7-------7---7--|7---7---7---7---7-------7------|
A|5---5---5---5---5-------5---5--|5---5---5---5---5-------5------|
E|-------------------------------|-------------------------------|

Made my bed now I’m gonna lie in it


e|5-----5 5------ 5------ 5------|5------ 5------ 5---3-- -------|
B|3-----3-3-------3-------3------|3-------3-------3---3----------|
G|2-----2-2-------2-------2------|2-------2-------2---2----------|
D|-------------------------------|-------------------------------|
A|-------------------------------|-------------------------------|
E|-------------------------------|-------------------------------|


e|------- ------- ------- -------|------- ------- ------- -------|
B|-------------------------------|-------------------------------|
G|-------------------------------|-------------------------------|
D|7-------7---7---7-------7------|7-------7---7---7---7---7------|
A|5-------5---5---5-------5------|5-------5---5---5---5---5------|
E|-------------------------------|-------------------------------|

I


e|5-----5 5-----5 5-----5 5-----5|5-----5 5-----5 5-----5 5-----5|
B|3-----3-3-----3-3-----3-3-----3|3-----3-3-----3-3-----3-3-----3|
G|2-----2-2-----2-2-----2-2-----2|2-----2-2-----2-2-----2-2-----2|
D|-------------------------------|-------------------------------|
A|-------------------------------|-------------------------------|
E|-------------------------------|-------------------------------|


e|------- ------- ------- -------|------- ------- ------- -------|
B|-------------------------------|-------------------------------|
G|-------------------------------|-------------------------------|
D|----------------3---5---3-5/7--|------------5-------3----------|
A|5-----------5------------------|-------------------------------|
E|-------------------------------|-------------------------------|


e|3------ ----3-- ------- -------|3------ ----3-- ------- -------|
B|3-----------3------------------|3-----------3------------------|
G|4-----------4------------------|4-----------4------------------|
D|5-----------5------------------|5-----------5------------------|
A|5-----------5------------------|5-----------5------------------|
E|3-----------3------------------|3-----------3------------------|

didn’t know my Ma Didn’t see my Pa,


e|------- 7------ ----7-- ----7--|------- 7------ ----7-- ----7--|
B|--------8-----------8-------8--|--------8-----------8-------8--|
G|--------7-----------7-------7--|--------7-----------7-------7--|
D|-------------------------------|-------------------------------|
A|-------------------------------|-------------------------------|
E|-------------------------------|-------------------------------|


e|5------ ----5-- ------- -------|5------ ----5-- ------- -------|
B|5-----------5------------------|5-----------5------------------|
G|6-----------6------------------|6-----------6------------------|
D|7-----------7------------------|7-----------7------------------|
A|7-----------7------------------|7-----------7------------------|
E|5-----------5------------------|5-----------5------------------|

How can you understand when You’re the son of no


e|------- 9------ ----9-- ----9--|------- 9------ ----9-- ----9--|
B|-------10----------10------10--|-------10----------10------10--|
G|--------9-----------9-------9--|--------9-----------9-------9--|
D|-------------------------------|-------------------------------|
A|-------------------------------|-------------------------------|
E|-------------------------------|-------------------------------|


e|10----- ---10-- ------- -------|10----- ---10-- ------- -------|
B|10---------10------------------|10---------10------------------|
G|11---------11------------------|11---------11------------------|
D|12---------12------------------|12---------12------------------|
A|12---------12------------------|12---------12------------------|
E|10---------10------------------|10---------10------------------|

man no


e|------- 14----- ---14-- ---14--|------- 14----- ---14-- ---14--|
B|--------15---------15------15--|--------15---------15------15--|
G|--------14---------14------14--|--------14---------14------14--|
D|-------------------------------|-------------------------------|
A|-------------------------------|-------------------------------|
E|-------------------------------|-------------------------------|


e|7------ ----7-- ------- -------|5------ ------- ------- -------|
B|9-----------9------------------|5------------------------------|
G|9-----------9------------------|6------------------------------|
D|9-----------9------------------|7------------------------------|
A|7-----------7------------------|7------------------------------|
E|-------------------------------|5------------------------------|


e|------- 12----- ---12-- -------|5------ ------- ------- -------|
B|--------12---------12----------|5------------------------------|
G|--------13---------13----------|6------------------------------|
D|-------------------------------|-------------------------------|
A|-------------------------------|-------------------------------|
E|-------------------------------|-------------------------------|


e|------- ------- ------- -------|------- ------- ------- -------|
B|-------------------------------|-------------------------------|
G|-------------------------------|-------------------------------|
D|7-------7---7---7---7---7---7--|7---7---7---7---7-------7------|
A|5-------5---5---5---5---5---5--|5---5---5---5---5-------5------|
E|-------------------------------|-------------------------------|

Made my bed now I’m gonna lie in it


e|------- 5------ ------- 5------|------- 5------ ----3-- -------|
B|--------3---------------3------|--------3-----------2----------|
G|--------2---------------2------|--------2-----------2----------|
D|-------------------------------|-------------------------------|
A|-------------------------------|-------------------------------|
E|-------------------------------|-------------------------------|


e|------- ------- ------- -------|------- ------- ------- -------|
B|-------------------------------|-------------------------------|
G|-------------------------------|-------------------------------|
D|7-------7---7---7-------7------|7-------7---7---7---7---7---7--|
A|5-------5---5---5-------5------|5-------5---5---5---5---5---5--|
E|-------------------------------|-------------------------------|
e|5-----5 5------ 5------ 5------|5------ 5------ ----5-- -------|
B|3-----3-3-------3-------3------|3-------3-----------6----------|
G|2-----2-2-------2-------2------|2-------2-----------5----------|
D|-------------------------------|-------------------------------|
A|-------------------------------|-------------------------------|
E|-------------------------------|-------------------------------|


e|------- ------- ------- -------|------- ------- ------- -------|
B|-------------------------------|-------------------------------|
G|-------------------------------|-------------------------------|
D|----------------3---5---3-5/7--|------------5-------3----------|
A|5-----------5------------------|-------------------------------|
E|-------------------------------|-------------------------------|
e|------- ------- ------- -------|------- ------- ------- -------|
B|-------------------------------|-------------------------------|
G|-------------------------------|-------------------------------|
D|7---7---7---7---7-------7---7--|7---7---7---7---7-------7------|
A|5---5---5---5---5-------5---5--|5---5---5---5---5-------5------|
E|-------------------------------|-------------------------------|

Made my bed now I’m gonna lie in it


e|------- 5------ ------- 5------|------- 5------ ----3-- -------|
B|--------3---------------3------|--------3-----------2----------|
G|--------2---------------2------|--------2-----------2----------|
D|-------------------------------|-------------------------------|
A|-------------------------------|-------------------------------|
E|-------------------------------|-------------------------------|


e|------- ------- ------- -------|------- ------- ------- -------|
B|-------------------------------|-------------------------------|
G|-------------------------------|-------------------------------|
D|7-------7---7---7-------7------|7-------7---7---7---7---7------|
A|5-------5---5---5-------5------|5-------5---5---5---5---5------|
E|-------------------------------|-------------------------------|

I


e|5-----5 5------ 5-----5 5-----5|5-----5 5-----5 5---5-- -------|
B|3-----3-3-------3-----3-3-----3|3-----3-3-----3-3---6----------|
G|2-----2-2-------2-----2-2-----2|2-----2-2-----2-2---5----------|
D|-------------------------------|-------------------------------|
A|-------------------------------|-------------------------------|
E|-------------------------------|-------------------------------|


e|------- ------- ------- -------|------- ------- ------- -------|
B|-------------------------------|-------------------------------|
G|-------------------------------|-------------------------------|
D|----------------3---5---3-5/7--|------------5-------3----------|
A|5-----------5------------------|-------------------------------|
E|-------------------------------|-------------------------------|
e|------- ------- ------- -------|------- ------- ------- -------|
B|-------------------------------|-------------------------------|
G|-------------------------------|-------------------------------|
D|7---7---7---7---7-------7---7--|7---7---7---7---7-------7------|
A|5---5---5---5---5-------5---5--|5---5---5---5---5-------5------|
E|-------------------------------|-------------------------------|

Made my bed now I’m gonna lie in it


e|5-----5 5------ 5-----5 5-----5|5-----5 5-----5 5---5-- -------|
B|3-----3-3-------3-----3-3-----3|3-----3-3-----3-3---6----------|
G|2-----2-2-------2-----2-2-----2|2-----2-2-----2-2---5----------|
D|-------------------------------|-------------------------------|
A|-------------------------------|-------------------------------|
E|-------------------------------|-------------------------------|

………………………Fade out……………..………..

B Bend
R Release
/ Slide up
Slide down
H Hammer-on
P Pull-off
~ Vibrato
+ Harmonic
x Mute note
. Play note like a dot in standard notation
^ Ties two notes together
(. Pause

To play the this songs, including Made My Bed, Gonna Lie in It by by ukulele, the most important basic ukulele chords to learn are C chord, D chord, G chord, and Em chord.
These set you up to play a a lot of songs, and each of them is easy to master.

Leave a Reply

Your email address will not be published.