Masses of a Dying Breed by Miss May I Ukulele Chords

Posted on

If you are looking for Masses of a Dying Breed ukulele chords, you have visit to the right place.
You can play versatile instrument Masses of a Dying Breed using ukulele or guitar.
This song by Miss May I can also be played by that instruments.
=

Masses of a Dying Breed chords has rhythm and included in Monument (2010) album.
You can also get another musical genres, including jazz ukulele chords, country music ukulele chords, pop ukulele chords, world music ukulele chords, and rock ukulele chords here.

Masses of a Dying Breed by Miss May I Ukulele Chords

[Monument]
[Miss May I]

Tuning: Drop C(CGCFAD/Drop D 1 Step Down)
joshuaoliveira@hotmail.com

[Riff 1] – [00:00] – [00:31] – [12–|x]


- -5-------5-----8------------------|
- -6p5-6h8---8---------6h8---6p5----|
- -7-----------7-----7-----------7--| with whatever that effect is..
- -------------------------0--------| reverb, echo, sumthin lol
- ----------------------------------|
- ----------------------------------|
----------------------------------------------------------------------------
[Riff 2] - [00:10] - [00:31-----------| -
- ------------------------------------|
- ------------------------------------|
- ------------------------------------|
- -8~------10~---3~--0~------------7--|
- -8~------10~---3~--0~------------7--|
- -8~------10~---3~--0~------------7--|

in the build up before the next riff just palm mute n chug open lol
i think its there but hard to hear 😛


----------------------------------------------------------------------------

[Riff 3a] – [00:31] – [00:52]


- ---------------------------------|
- -----------------------------6h8-|
- -----7---7-----7---7-----7h9-----|
- -000---0---000---0---0-0---------|
- ---------------------------------|
- ---------------------------------|

PM … . … . …


- -----------------------------------|
- -----------------------------------|
- -----7---7-----7---7-----10---109-|
- -000---0---000---0---0-0----0------|
- -----------------------------------|
- -----------------------------------|

PM … . … . … .


- ---------------------------------|
- -----------------------------6h8-|
- -----7---7-----7---7-----7h9-----|
- -888---8---888---8---8-8---------|
- ---------------------------------|
- ---------------------------------|

PM … . … . …


- -------------------------------8-|
- -----------------------------6---|
- -----7---7-----7---7-----7h9-----|
- -555---5---555---5---5-5---------|
- ---------------------------------|
- ---------------------------------|

PM … . … . …

[Riff 3b] – [00:31] – [00:52]


- -----------------------------------------|
- -----------------------------------10h11-|
- -----10---10-----10---10-----10h12-------|
- -777----7----777----7----7-7-------------|
- -----------------------------------------|
- -----------------------------------------|

PM … . … . …


- ----------------------------------------|
- -----------------------------11---1110-|
- -----10---10-----10---10----------------|
- -777----7----777----7----7-7----7-------|
- ----------------------------------------|
- ----------------------------------------|

PM … . … . … .


- ----------------------------------------------------|
- ----------------------------------------------10h11-|
- --------10----10--------10----10--------10h12-------|
- -121212----12----121212----12----121212-------------|
- ----------------------------------------------------|
- ----------------------------------------------------|

PM …… .. …… .. ……


- --------------------------------------13-|
- --------------------------------10h11----|
- -----10---10-----10---10-----10----------|
- -888----8----888----8----8-8-------------|
- -----------------------------------------|
- -----------------------------------------|

PM … . … . …


----------------------------------------------------------------------------
[Riff 4a] - [00:52] - [01:13--------| -
- ----------------------------------|
- ----------------------------------|
- ----------------------------------|
- ----------------------------------|
- -----5---5-----5---5-----5---5h8--|
- -000---0---000---0---000---0------|

PM … . … . … .


- ---------------------------------|
- ---------------------------------|
- ---------------------------------|
- ---------------------------------|
- -----5---5-----5---5-----5p7p5h7-|
- -000---0---000---0---000---------|

PM … . … . …


- ---------------------------------|
- ---------------------------------|
- ---------------------------------|
- ---------------------------------|
- -----8---8-----7---7-----5---5---|
- -555---5---555---5---555---5---5-|

PM … . … . … .


- -----------------------------------|
- -----------------------------------|
- -----------------------------------|
- -----------------------------------|
- -----5---5-----5---5-----------5h8-|
- -888---8---888---8---888-0h5h8-----|

PM … . … . …

[Riff 4b] – [01:02] – [01:13]


- ----------------------------------|
- ----------------------------------|
- ----------------------------------|
- ----------------------------------|
- -----8---8-----8---8-----8---8h12-|
- -000---0---000---0---000---0------|

PM … . … . … .


- ------------------------------------|
- ------------------------------------|
- ------------------------------------|
- ------------------------------------|
- -----8---8-----8---8-----12p10p8h10-|
- -000---0---000---0---000------------|

PM … . … . …


- ---------------------------------|
- ---------------------------------|
- ---------------------------------|
- -----7---7-----5---5-------------|
- -------------------------8---8---|
- -555---5---555---5---555---5---5-|

PM … . … . … .


- -------------------------------------|
- -------------------------------------|
- -------------------------------------|
- -------------------------------------|
- -----8---8-----8---8------------8h12-|
- -888---8---888---8---888-0h8h12------|

PM … . … . …


----------------------------------------------------------------------------

[Riff 5, Guitar 1 & 2] – [01:13] – [01:15]


- -----------------------------------|
- -----------------------------------|
- -----------------------------------|
- -0~--------------------------------|
- -0~--------------------------------|
- -0~--------------------------------|

[-]


- -----------------------------------|
- ----------------8----------------8-|
- ---7---9---10-------7---9---10-----|
- -0---0---0----0---0---0---0----0---|
- -----------------------------------|
- -----------------------------------|

PM . . . . . . . .


----------------------------------------------------------------------------
[Riff 6a] - [01:15] - [01:36----------| -
- ------------------------------------|
- ------------------------------------|
- ------------------------------------|
- -8~------10~---3~--0~------0~----7--|
- -8~------10~---3~--0~------0~----7--|
- -8~------10~---3~--0~------0~----7--|

end with pickslide right before next riff


[Riff 6b] - [01:15] - [01:36--------------------------------------------| -
- ----------------------8---------------------------------8-------------|
- ----------------8-------10-----6h8----------------8-------10-----6h8--|
- ---7---9---10------------------------7---9---10-----------------------|
- -0---0---0----0---0-0------0-0-----0---0---0----0---0-0------0-0------|
- ----------------------------------------------------------------------|
- ----------------------------------------------------------------------|

PM . . . . … … . . . . … …


- ----------------------8---------------------------------8--------8/10-|
- ----------------8-------10-----6h8----------------8-------10----------|
- ---7---9---10------------------------7---9---10-----------------------|
- -0---0---0----0---0-0------0-0-----0---0---0----0---0-0------0-0------|
- ----------------------------------------------------------------------|
- ----------------------------------------------------------------------|

PM . . . . … … . . . . … …


----------------------------------------------------------------------------

[Riff 4a] – [01:36] – [01:57] –

[Riff 7] – [01:46] – [01:57]


- -----------------------------------------------------------------|
- -----------------------------------------------------------------|
- -----------------------------------------------------------------|
- -----------------------------------------------------------------|
- -000-000-----000---0-----000-000-000-000-----000---0-----000-000-|
- -000-000-----000---0-----000-000-000-000-----000---0-----000-000-|

PM ………………………………………………………


- -----------------------------------------------------------------|
- -----------------------------------------------------------------|
- -----------------------------------------------------------------|
- -----------------------------------------------------------------|
- -555-555-----555---5-----555-555-888-888-----888---8-----888-888-|
- -555-555-----555---5-----555-555-888-888-----888---8-----888-888-|

PM ………………………………………………………


----------------------------------------------------------------------------
[Riff 8] - [01:57] - [02:07-------------------------------------------------| -
- --------------------------------------------------------------------------|
- --------------------------------------------------------------------------|
- ---------------------------3-----3-----------------------------3-----3----|
- -------------------------/----/----------------------------/----/-----|
- -000-000-----000-000-----0-0-0-0-0-0-000-000-----------------0-0-0-0-0-0--|
- -000-000-----000-000-----0-0-0-0-0-0-000-000-----------------0-0-0-0-0-0--|

PM ……………………………………………………………..

theres more than one way to fill a quarter note space. you can fit a
quarter note, two eighths, or four sixteenths evenly. or you can do two
sixteenths and an eighth like the first notes in the breakdown above.
thats all easy to put on paper.. you can also fit three notes evenly lol
which is where the tempo seems to slow down. now since i try to use every
“-” as a sixteenth note, and you cant divide these into 3s when you see
the / 3 on 3 notes, they are quarter notes divided into 3 notes!
lol useless rant.. but its not a 8th or 16th note, its in the middle 😛
i didnt want anyone to get confused with that if i just wrote it normally
you can hear it in the song anyway what im talkin about 😛


[Riff 9] - [02:07] - [02:17---------------------------------------------| -
- ----------------------------------------------------------------------|
- ----------------------------------------------------------------------|
- ---------------------------3-----3------------------------------------|
- -------------------------/----/-------------------------------------|
- -000-000-----------------0-0-0-0-0-0-000-000-----000-000-----000-000--|
- -000-000-----------------0-0-0-0-0-0-000-000-----000-000-----000-000--|

PM ………………………………………………………….


----------------------------------------------------------------------------
[Riff 1] - [02:17] - [02:38---------------| -
[Riff 2] - [02:17] - [02:38---------------| -

[Riff 5, Guitar 1 & 2] – [02:38] – [02:34-| –


[Riff 6a + 6b] - [02:34] - [03:04---------| -

[Riff 10] – [03:04] – [03:25]


- -----------------------------------------------------------------|
- -----------------------------------------------------------------|
- -----------------------------------------------------------------|
- -8-----------8-----------8-7-----5-----------5-----------5-7-----|
- -8-----8-8-8-8-----8-8-8-8-7-----5-----5-5-5-5-----5-5-5-5-7-----|
- -8-----8-8-8-8-----8-8-8-8-7-----5-----5-5-5-5-----5-5-5-5-7-----|

PM ….. ….. ….. …..


- -----------------------------------------------------------------|
- -----------------------------------------------------------------|
- -----------------------------------------------------------------|
- -0-----------0-------------------0-----------0-------------7-----|
- -0-----0-0-0-0-----0-0-0-0-0--0-----0-0-0-0-----0-0-0-0-7-----|
- -0-----0-0-0-0-----0-0-0-0-0-----0-----0-0-0-0-----0-0-0-0-7-----|

PM ….. ……… ….. …….


- -----------------------------------------------------------------|
- -----------------------------------------------------------------|
- -----------------------------------------------------------------|
- -8-----------8-----------8-7-----5-----------5-----------5-7-----|
- -8-----8-8-8-8-----8-8-8-8-7-----5-----5-5-5-5-----5-5-5-5-7-----|
- -8-----8-8-8-8-----8-8-8-8-7-----5-----5-5-5-5-----5-5-5-5-7-----|

PM ….. ….. ….. …..


- -----------------------------------------------------------------|
- -----------------------------------------------------------------|
- -----------------------------------------------------------------|
- -0-----------0-------------------0-----------0-------------7-----|
- -0-----0-0-0-0-----0-0-0-0-0-0-0-0-----0-0-0-0-----0-0-0-0-7-----|
- -0-----0-0-0-0-----0-0-0-0-0-0-0-0-----0-0-0-0-----0-0-0-0-7-----|

PM ….. …………. ….. …….


----------------------------------------------------------------------------

[Riff 11, Guitar 1 & 2] – [03:25] – [04:00]


- -----------------------------------------------------------------|
- -----------------------------------------------------------------|
- -----------------------------------------------------------------|
- -----------------------------------------------------------------|
- -----------------------------------------------------------------|
- -8~----------7~--5~---------/7~--0~--------------------------7~--|

[-]


- -----------------------------------------------------------------|
- -----------------------------------------------------------------|
- -----------------------------------------------------------------|
- -----------------------------------------------------------------|
- /8~----------7~--5~----------3~-/5~--------------------------7~--|
- -----------------------------------------------------------------|
- -----------------------------------------------------------------|
- -----------------------------------------------------------------|
- -----------------------------------------------------------------|
- -----------------------------------------------------------------|
- -----------------------------------------------------------------|
- /8~----------7~--5~---------/7~--0~--------------------------7~--|

[-]


- -----------------------------------------------------------------|
- -----------------------------------------------------------------|
- -----------------------------------------------------------------|
- -----------------------------------------------------------------|
- /8~----------7~-/10~--------7~--5~--------------------------7~--|
- -----------------------------------------------------------------|
- -----------------------------------------------------------------|
- -----------------------------------------------------------------|
- -----------------------------------------------------------------|
- -----------------------------------------------------------------|
- -----------------------------------------------------------------|
- /8~----------7~--5~---------/7~--0~------------------------------|

[-]


- -----------------------------------------------------------------|
- -----------------------------------------------------------------|
- -----------------------------------------------------------------|
- -----------------------------------------------------------------|
- -8~---------/12~-10~---------7~--8~------------------------------|
- -----------------------------------------------------------------|
----------------------------------------------------------------------------

[Symbols]

p Pull Off
h Hammer On
~ Let Ring
PM… Palm Mute notes with (…) under them
/ Slide Up
Slide Down
[ ] Pinch Harmonic
/3 Thirds (Explained Above)

🙂

To play the most songs, including Masses of a Dying Breed by Miss May I by ukulele, the most crucial basic ukulele chords to learn are C chord, D chord, G chord, and Em chord.
These set you up to play a a lot of songs, and each of them is easy to master.

Leave a Reply

Your email address will not be published.