Mataz by Lucybell Ukulele Chords

Posted on

If you are looking for Mataz ukulele chords, you have come to the best place.
You can play versatile instrument Mataz using ukulele or guitar.
This song by Lucybell can also be played by that instruments.
=

Mataz chords has rhythm and included in Viajar (1996) album.
You can also find another musical genres, including jazz ukulele chords, country music ukulele chords, pop ukulele chords, world music ukulele chords, and rock ukulele chords here.

Mataz by Lucybell Ukulele Chords

Intro:F# mj7,E mj7,D# mj7,F# mj7
Cada vez que veo brillar
MI mj7
tus piernas al fin logro descifrar
RE# mj7
que puede ser ms
F# mj7
que un simple espejo
Cada vez que veo brincar
MI mj7
a mi alrededor tus labios sin voz
RE# mj7
logro entender
F# mj7
que hay slo un beso
Slo al despertar

F# mj7 MI mj7


|---4-----4-----4---4-----4-----4-|---4-----4-----4---4-----4-----4-|
|-----6-----6---------6-----6-----|-----5-----5---------5-----5-----|
|-------6-----6---------6-----6---|-------4-----4---------4-----4---|
|---------------------------------|---------------------------------|
|---------------------------------|---------------------------------|
|---------------------------------|---------------------------------|

RE# mj7 F# mj7


|-------6-----------6-------6-----|---------------------------------|
|-----7-----7---------7-------7---|-------6---------6-7-6-----------|
|---8-----------8-------8---------|-----6----------6------6---------|
|---------------------------------|---8-----------------------------|
|---------------------------------|---------------------------------|
|---------------------------------|---------------------------------|

Cada vez que veo brillar tus piernas
logro entender que puede ser ms
que puede ser ms
que un simple espejo
Slo al despertar

Cada vez que veo brincar
a mi alrededor tus labios sin voz
logro entender
que hay slo un beso
Slo al despertar

SI mj7
Si esto llegase a acabar
RE mj7
Si esto llegase a acabar
RE # mj7
Mira mis ojos, mrame directo a los ojos
RE mj7 DO # mj7
yo sabr mentir a Dios por verte hoy


|--------------------------------/14--13--------------------------|
|----------------------10--11------------14--12---11h12-----------|
|-11-11--------10h11----------------------------------------------|
|-----------------------------------------------------------------|
|-----------------------------------------------------------------|
|-----------------------------------------------------------------|
|----------------------9---------/14--13--------------------------|
|--------------------------11------------14--12---11h12-----------|
|-11-11--------10h11----------------------------------------------|
|-----------------------------------------------------------------|
|-----------------------------------------------------------------|
|-----------------------------------------------------------------|
|-----------------------------------------------------------------|
|---------------------10--11------12---------13---------14--------|
|-11-11--------10h11----------------------------------------------|
|-----------------------------------------------------------------|
|-----------------------------------------------------------------|
|-----------------------------------------------------------------|
|-----------------------------------------------------------------|
|-----------------------------------------------------------------|
|-11-11----11p10----------11--11p10---------11--11p10---/10--8~~--|
|-------------------11----------------11--------------------------|
|-----------------------------------------------------------------|
|-----------------------------------------------------------------|

SI mj7
Si esto llegase a acabar
RE mj7
Si esto pareciese acabar
RE# mj7
Mira mis ojos, mirame directo a los ojos
RE mj7 DO# mj7 SI mj7
yo sabr mentir a Dios por verte hoy

Si esto llegase a acabar
Si esto se va, va
Mira mis ojos, mirame directo a los ojos
yo sabr mentir a Dios por verte hoy
SI mj7 RE mj7 RE# mj7 RE mj7 DO# mj7 SI mj7
verte hoy

SI mj7 RE mj7 RE# mj7 RE mj7 DO# mj7 SI mj7

F# mj7 2 4 3 1 x x
MI mj7 x 7 9 8 9 x
RE# mj7 x 6 8 6 7 6
F# mj7 x 9 11 10 9 x
SI mj7 x 2 4 3 4 2
RE mj7 x 5 7 6 7 5
DO# mj7 x 4 6 4 5 4

To play the most songs, including Mataz by Lucybell by ukulele, the most crucial basic ukulele chords to learn are C chord, D chord, G chord, and Em chord.
These set you up to play a many of songs, and each of them is easy to learn.

Leave a Reply

Your email address will not be published.