Mir by Grindstone Ukulele Chords

Posted on

If you are looking for Mir ukulele chords, you already visit to the right site.
You can play versatile instrument Mir using ukulele or guitar.
This song by Grindstone can also be played by that instruments.
=

Mir chords has rhythm and included in album.
You can also find other musical genres, including jazz ukulele chords, country music ukulele chords, pop ukulele chords, world music ukulele chords, and rock ukulele chords here.

Mir by Grindstone Ukulele Chords

phat choon. the rhythm in the tab may not be 100% but listen to the song and youll
get it!
drop d tuning

intro/verse


----8-8---10-10--11-11-----------------------8-8---10-10--11-11----8------
---8--8---10-10--10-10----------------------8--8---10-10--10-10---8-------
--8---8---10-10--10-10---3-3-x-1-1-xx1-1---8---8---10-10--10-10--8--------
-6----6---8--8---8--8----3-3-x-1-1-xx1-1--6----6---8--8---8--8--6---------
-------------------------3-3-x-1-1-xx1-1----------------------------------

chorus part 1


-10-10-xx-10-10-xx1010-3-3-xx-1-1-xx1-1-10-10-x10-10-x10-10-10-10-10-10-10-
-10-10-xx-10-10-xx1010-3-3-xx-1-1-xx1-1-10-10-x10-10-x10-10-10-10-10-10-10-
-10-10-xx-10-10-xx1010-3-3-xx-1-1-xx1-1-10-10-x10-10-x10-10-10-10-10-10-10-

part 2


---------------------------------------------------------
---------------------------------------------------------
---------------------------------------------------------
-1-1-1-1-1-1h3-3x-3-3x-3-3-8h10-8h10-xx-8h10-8h10--------
-1-1-1-1-1-1h3-3x-3-3x-3-3-8h10-8h10-xx-8h10-8h10--------
-1-1-1-1-1-1h3-3x-3-3x-3-3-8h10-8h10-xx-8h10-8h10--------

part 3 [chorus 2 only]


-------------------------------------------------
-------------------------------------------------
-------------------------------------------------
-10-10-xx-3-3-x-1-xx-10-10-xx-3-3-x-1------------
-10-10-xx-3-3-x-1-xx-10-10-xx-3-3-x-1------------
-10-10-xx-3-3-x-1-xx-10-10-xx-3-3-x-1------------

play this part over and over[rhythm changes regularly]


-------------------------
-------------------------
-------------------------
-0~-----1-0~------1-1-0~-
-0~-----1-0~------1-1-0~-
-0~-----1-0~------1-1-0~-
----------------------------------------------
----------------------------------------------
----------------------------------------------
-0-0-0-1-1--1--1-1-1-1---1---1h33-33-3-3------
-0-0-0-1-1--1--1-1-1-1---1---1h33-33-3-3------
-0-0-0-1-1--1--1-1-1-1---1---1h33-33-3-3------

Off in the distance, lost in the background, unseen.
Masked in illusion, shaded by the colors I breathe.
I scream, it tears my soul.
Held, held for an instant, never found consistent.
(chorus)
I reach with hands high.
Cherish my thoughts of hope built yesterday.
Portray a picture, painted perfection, not a flaw.
Shadowed, my dreams are fading.
Left, left empty canvas, gone, what has happened?
Change, changing the colors, adding another.
(chorus)
I reach with hands high.
Cherish my thoughts of hope built yesterday.
(chorus)
I reach with hands high.
Cherish my thoughts of hope.
I scream! SCREAM!!! Don’t give it away!
Cherish my thoughts of hope built yesterday.

To play the most songs, including Mir by Grindstone by ukulele, the most crucial basic ukulele chords to learn are C chord, D chord, G chord, and Em chord.
These set you up to play a ton of songs, and each of them is easy to learn.

Gravatar Image
Like to play Ukulele and Sudoku Game

Leave a Reply

Your email address will not be published. Required fields are marked *