Mr. Pond by Chameleon Circuit Ukulele Chords

Posted on

If you are searching for Mr. Pond ukulele chords, you’ve visit to the best site.
You can play versatile instrument Mr. Pond using ukulele or guitar.
This song by Chameleon Circuit can also be played by that instruments.
=

Mr. Pond chords has rhythm and included in Still Got Legs (2011) album.
You can also find another musical genres, including jazz ukulele chords, country music ukulele chords, pop ukulele chords, world music ukulele chords, and rock ukulele chords here.

Mr. Pond by Chameleon Circuit Ukulele Chords

Capo 3rd


E|----------0------------------0--------|
B|----1-------1----------0-------0------|
G|------2-------2----------1-------1----|
D|--------2-------2----------2-------2--|
A|--0------------------2----------------|
E|--------------------------------------|


E|-----------0------------------2-------|
B|-----1-------1----------3-------3-----|
G|-------0-------0----------2-------2---|
D|---2-----2-------2----0-----0-------0-|
A|--------------------------------------|
E|--------------------------------------|


E|----------1-----------------0---------|
B|----3-------3----------1------1-------|
G|------2-------2----------2------2-----|
D|--0-----0-------0----------2------2---|
A|--------------------0-----------------|
E|--------------------------------------|


E|----------0---------------------------|
B|----0-------0-------------------------|
G|------1-------1-----------------------|
D|--------2-------2---------------------|
A|--2-----------------------------------|
E|--------------------------------------|

Its not the way she looks at you
Like you’re the first man in her life
Because I know Amy’s true
and when we’re through she’ll be my wife

I know you save the universe
And she paints you in perfect lights
And though i maybe just a nurse
E stop
The doctor isn’t always right

You’ve got no idea
just how dangerous
Am E stop
You make people to themselves

‘Cause I want to be Mr Pond
And I can’t lie and say
That I’m fond of the way you’ve been hurled

Into our world
Now that you’ve saved the day why can’t you fly away?
‘Cause I want to be Mr Pond
But there’s so many things that could go wrong
In your time machine
stop
That you just don’t see

Why Can’t She See?


E|----------0------------------0--------|
B|----1-------1----------0-------0------|
G|------2-------2----------1-------1----|
D|--------2-------2----------2-------2--|
A|--0------------------2----------------|
E|--------------------------------------|


E|-----------0------------------2-------|
B|-----1-------1----------3-------3-----|
G|-------0-------0----------2-------2---|
D|---2-----2-------2----0-----0-------0-|
A|--------------------------------------|
E|--------------------------------------|


E|----------1-----------------0---------|
B|----3-------3----------1------1-------|
G|------2-------2----------2------2-----|
D|--0-----0-------0----------2------2---|
A|--------------------0-----------------|
E|--------------------------------------|


E|----------0---------------------------|
B|----0-------0-------------------------|
G|------1-------1-----------------------|
D|--------2-------2---------------------|
A|--2-----------------------------------|
E|--------------------------------------|

She’s never said that she loves me
But she’ll still risk her life for you
And in your company it seems to me

That’s all she’ll do.
Well I guess it’s Amy’s choice
And I know I can’t over rule her
But I’ve hardly had a voice
stop
And I don’t want to lose her

You’ve got no idea
just how dangerous
Am E stop
the world is when you’re around

‘Cause I want to be Mr Pond
And I can’t lie and say
That I’m fond of the way you’ve been hurled

Into our world
Now that you’ve saved the day why can’t you fly away?
‘Cause I want to be Mr Pond
But there’s so many things that could go wrong
In your time machine
stop
That you just don’t see

Why can’t you see
What you’re doing to Amy?
If you keep putting her in danger
You’re going to get her killed!

‘Cause I want to be Mr Pond
And I can’t lie and say
That I’m fond of the way you’ve been hurled

Into our world
Now that you’ve saved the day why can’t you fly away?
‘Cause I want to be Mr Pond
But there’s so many things that could go wrong
In your time machine
stop
That you just don’t see

Why Cant you see?


E|----------0------------------0--------|
B|----1-------1----------0-------0------|
G|------2-------2----------1-------1----|
D|--------2-------2----------2-------2--|
A|--0------------------2----------------|
E|--------------------------------------|


E|-----------0------------------2-------|
B|-----1-------1----------3-------3-----|
G|-------0-------0----------2-------2---|
D|---2-----2-------2----0-----0-------0-|
A|--------------------------------------|
E|--------------------------------------|


E|----------1-----------------0---------|
B|----3-------3----------1------1-------|
G|------2-------2----------2------2-----|
D|--0-----0-------0----------2------2---|
A|--------------------0-----------------|
E|--------------------------------------|


E|----------0---------------------------|
B|----0-------0-------------------------|
G|------1-------1-----------------------|
D|--------2-------2---------------------|
A|--2-----------------------------------|
E|--------------------------------------|

fade off

To play the this songs, including Mr. Pond by Chameleon Circuit by ukulele, the most crucial basic ukulele chords to learn are C chord, D chord, G chord, and Em chord.
These set you up to play a many of songs, and each of them is easy to master.

Leave a Reply

Your email address will not be published.