Mushroom Cult by Dog Fashion Disco Ukulele Chords

Posted on

If you are looking for Mushroom Cult ukulele chords, you have visit to the right site.
You can play versatile instrument Mushroom Cult using ukulele or guitar.
This song by Dog Fashion Disco can also be played by that instruments.
=

Mushroom Cult chords has rhythm and included in Anarchists of Good Taste (2001) album.
You can also find other musical style, including jazz ukulele chords, country music ukulele chords, pop ukulele chords, world music ukulele chords, and rock ukulele chords here.

Mushroom Cult by Dog Fashion Disco Ukulele Chords


____________________________
/ Dog Fashion Disco / I think this song is about drugs. They use
/ (feat. Serj Tankian) / the religious cult this as a metaphor for the
/ Mushroom Cult / power of the drugs and how strongly it controls
/ Anarchists of Good Taste / your way of thoughts as religion does.
/___________________________/ I love this song for the all 11 insane riffs 😉

Guitars: (D A D G B E – Drop D tuning)
Switch distortion on/off with a very evil distortion pedal!
In this song there are two guitars playing exactly the same, panned in each
side. So the only time I’ve written two guitars is in that single bar in the
verse, where they differ a bit from eachother.

Intro:
[Distorted]
Q77 bpm
4/4 9/8
E E E E E E E E E E E E E E E E E 4x


||----------------------------------|--------------------------------------||
||o---------------------------------|-------------------------------------o||
||----------------------------------|--------------------------------------||
||----------3-------5---------------|--------------------------------------||
||o-3---5---------------5---3---5---|-4---5---7---8-------6---7---6---5---o||
||--3---5-------5---------------5---|-4---5---7-------7-------7---6---5----||


Q90 bpm
[17/16] e e e S S S e e e S S


||------------------------------------------------||
||o----------------------------------------------o||
||--10---10---10---10-10-10-10---10---10---10-10--||
||---9----9----9----9--9--9--9----9----9----9--9--||
||o----------------------------------------------o||
||------------------------------------------------||

Verse:

4/4, shuffled
Q118 bpm
Q E E E E Q E E E E Q E E E E Q E E E E


|-------------------------|-------------------------|
|-------------------------|-------------------------|
|-------------------------|-------------------------|
|-------------------------|-------------------------|
|-------------------------|---------------------3-5-|
|-0---3-6-5-4-0---2-4-3-2-|-0---3-6-5-4-0---3-5-----|

Q E E E E Q E E E E Q E E E E Q E E E E


|-------------------------|-------------------------|
|-------------------------|-------------------------|
|-------------------------|-------------------------|
|-------------------------|-------------------------|
|-------------------------|-------------------3p0---|
|-0---3-6-5-4-0---2-4-3-2-|-0---3-6-5-4-0---0-----5-|

|
| Q E E E E Q E E E E


|-------------------------|
|-------------------------|
|-------------------------|
|-------------------------|
|-------------------------|
|-0---3-6-5-4-0---0-5h7-5-|

Q E E E E Q E E E E Q E E E E Q E E E E


|-------------------------|-------------------------|
|-------------------------|-------------------------|
|-------------------------|-------------------------|
|-------------------------|-------------------------|
|-------------------------|---------------------3-5-|
|-0---3-6-5-4-0---2-4-3-2-|-0---3-6-5-4-0---3-5-----|

Q E E E E Q E E E E Q E E E E Q E E E E


|-------------------------|-------------------------|
|-------------------------|-------------------------|
|-------------------------|-----------------------3-|
|-------------------------|---------0-4-3-----3-6---|
|-------------------------|-----------------5-------|
|-0---3-6-5-4-0---2-3-2-1-|-0---4-6-----------------|

” Kaleidoscope of love
Ophidians dance as the shifting occurs
We are stars and electric animals
Nurtured by the mothers of prostitutes “

Pre-Chorus:
[Distorted]
Q85 bpm
1.,2.,3.
[4/4] q q q q Q q q q E [2/4] q q


||--------------------------|-------------------------|--------------||
||o-------------------------|-------------------------|-------------o||
||--5-----5-----5-----5-----|-8-----5-----5-----------|--------------||
||--5-----5-----5-----5-----|-8-----5-----5-----6---5-|-4-----4------||
||o-3-----3-----3-----3-----|-6-----3-----3-----6---5-|-4-----4-----o||
||--------------------------|-------------------6---5-|-4-----4------||

4.
[4/4] q q q q E E E E E E E E E E E E


|-------------------------|-------------------------|
|-------------------------|-------------------------|
|-------------------------|-6-6-6-6-6-6-6-6-6-6-6-6-|
|-4-----4-----4-----4-----|-4-4-4-4-4-4-4-4-4-4-4-4-|
|-4-----4-----4-----4-----|-4-4-4-4-4-4-4-4-4-4-4-4-|
|-4-----4-----4-----4-----|-4-4-4-4-4-4-4-4-4-4-4-4-|

” Floating in a mushroom universe
Swimming in a sea of cyclostomes
And as we surface through the tide
You open up and I come inside “

Chorus:
Q116 bpm
PM–| PM–|
Q E Q Q E E E E a Q E Q Q E E E E


||--------------------------|------------------------------||
||o-------------------------|-----------------------------o||
||--------------------------|------------------------------||
||--2---1-------2---5-------|-5s8---5--------8---11--------||
||o-2---1-------2---5-------|-5s8---5--------8---11-------o||
||--2---1-------2---5-4-3-2-|-5s8---5--------8---11-8-7-6--||

PM–|
Q E Q Q E Q E a Q E Q Q E E E E


||--------------------------|-----------------------------||
||o-------------------------|----------------------------o||
||--------3~~---------------|---------6~~-----------------||
||--2---1-3~~---------------|-5s8---5-6~~---8---11--------||
||o-2---1-1~~---------------|-5s8---5-4~~---8---11-------o||
||--2---1-------2---5-4---2-|-5s8---5-------8---11-8-7-6--||

” I must be in limbo
‘Cause purgatory’s always felt like home “

Verse

” And as the world spins round and round
We fornicate upon the cotton clouds
That rain down sulphur smiles
On the children at play in the poppy fields “

Pre-Chorus

” Sinking for what seems like forever
Like Atlantis into the sea
To forget the shore and wash away
Wash away my memory “

Chorus

” I must be in limbo
‘Cause purgatory’s always felt like home “

Interlude:
1.
[3/4] Q Q E Q Q Q E Q Q Q E Q E E E E E E Q


||-------x---x------|------x---x------|------x---x------|--------------------||
||o------x---x------|------x---x------|------x---x------|-------------------o||
||--6----x---x-8----|-6----x---x-8----|-6----x---x-8----|-6-5-5-6-5-5-8------||
||--5----x---x-7----|-5----x---x-7----|-5----x---x-7----|-5-4-4-5-4-4-7------||
||o-4----x---x-6----|-4----x---x-6----|-4----x---x-6----|-4-3-3-4-3-3-6-----o||
||-------x---x------|------x---x------|------x---x------|--------------------||

2.
Q80 bpm, un-shuffled
[2/4]


|-------------|-----------------|
|-------------|-----------------|
|-6-5-5-6-5-5-|-8---------------|
|-5-4-4-5-4-4-|-7---------------|
|-4-3-3-4-3-3-|-6---------------|
|-------------|-----------------|

Bridge:
[4/4] E S S Q E S S Q [3/4] E E E E e e 4x


||----------------------------------|--------------------------||
||o---------------------------------|-------------------------o||
||----------------------------------|---------6-------8---8----||
||--1---4-3-2-------1---4-3-2-------|-1--/4---5-------7---7----||
||o-1---4-3-2-------1---4-3-2-------|-1--/4---4-------6---6---o||
||--1---4-3-2-------1---4-3-2-------|-1--/4-------4------------||

” Inside the moon lives the high priest of the mushroom cult
Upon the altar are the ashes of the Pharisees
I sold my soul
Sold my soul
Sold my soul away
I’m free of guilt
Free of sin
Free of everything “

Interlude:
Q85 bpm
[4/4] e e e e e e e e e e e e S S S S S S S S


||----------------------------------|----------------------------------||
||o---------------------------------|---------------------------------o||
||--8---8---8---8---8---8---8---8---|-8---8---8---8-----7-7-7---7-7-7--||
||--7---7---7---7---7---7---7---7---|-7---7---7---7-----6-6-6---6-6-6--||
||o---------------------------------|---------------------------------o||
||----------------------------------|----------------------------------||

La-La part
PM| PM| PM| PM|
S S E S S E S S E S S E 4x


||-----------------------------------||
||o---------------------------------o||
||-----------------------------------||
||------5-------4-------6-------5----||
||o---4-------4-------3-------4-----o||
||--4-------5-------3-------3--------||

q q q q 4x


||-----------------------------------||
||o---------------------------------o||
||-----------------------------------|| (these are the same chords as
||--5-------4-------6-------5--------|| before, just strummmed instead)
||o-4-------4-------3-------4-------o||
||--4-------5-------3-------3--------||

PM| PM| PM| PM|
S S E S S E S S E S S E 4x


||-----------------------------------||
||o---------------------------------o||
||-----------------------------------||
||------5-------4-------6-------5----||
||o---4-------4-------3-------4-----o||
||--4-------5-------3-------3--------||

Bridge:
[4/4] E S S Q E S S Q [3/4] E E E E e e 4x


||----------------------------------|--------------------------||
||o---------------------------------|-------------------------o||
||----------------------------------|---------6-------8---8----||
||--1---4-3-2-------1---4-3-2-------|-1--/4---5-------7---7----||
||o-1---4-3-2-------1---4-3-2-------|-1--/4---4-------6---6---o||
||--1---4-3-2-------1---4-3-2-------|-1--/4-------4------------||

” Inside the moon lives the high priest of the mushroom cult
Upon the altar are the ashes of the Pharisees
I sold my soul
Sold my soul
Sold my soul away
I’m free of guilt
Free of sin
Free of everything “

Outro:
Q83 bpm
4/4 9/8


||----------------------------------|--------------------------------------||
||o---------------------------------|-------------------------------------o||
||----------------------------------|--------------------------------------||
||----------3-------5---------------|--------------------------------------||
||o-3---5---------------5---3---5---|-4---5---7---8-------6---7---6---5---o||
||--3---5-------5---------------5---|-4---5---7-------7-------7---6---5----||

[4/4]


||----------------------------------|----------------------------------||------|
||o---------------------------------|---------------------------------o||------|
||----------------------------------|----------------------------------||------|
||----------3-------5---------------|----------------------------------||------|
||o-3---5---------------5---3---5---|-4---5---7---8-------6---7---6---o||-5----|
||--3---5-------5---------------5---|-4---5---7-------7-------7---6----||-5----|

Jon Sebastian Frederiksen – 9th /March /09

To play the this songs, including Mushroom Cult by Dog Fashion Disco by ukulele, the most important basic ukulele chords to learn are C chord, D chord, G chord, and Em chord.
These set you up to play a ton of songs, and each of them is easy to learn.

Gravatar Image
Like to play Ukulele and Sudoku Game

Leave a Reply

Your email address will not be published. Required fields are marked *