Neuronal Disorder State by Pantera Ukulele Chords

Posted on

If you are looking for Neuronal Disorder State ukulele chords, you have visit to the right place.
You can play versatile instrument Neuronal Disorder State using ukulele or guitar.
This song by Pantera can also be played by that instruments.
=

Neuronal Disorder State chords has rhythm and included in Reinventing the Steel (2000) album.
You can also find another musical style, including jazz ukulele chords, country music ukulele chords, pop ukulele chords, world music ukulele chords, and rock ukulele chords here.

Neuronal Disorder State by Pantera Ukulele Chords


#----------------------------------PLEASE NOTE---------------------------------#

#This file is the author’s own work and represents their interpretation of the #
#song. You may only use this file for private study, scholarship, or research. #


#------------------------------------------------------------------------------#

NEURONAL DISORDER STATE
As recorded by Gorod

Tabbed By Gorod

Gtr I (D G C F A D) – ‘Untitled’

Q140
12/8
Gtr I


PM---------------------------------------

S S S E S E S S S S E S E S S S S S S S


||------------------------------------------|
||o-----------------------------------------|
||------------------------------------------|
||------------------------------------------|
||o-----------------------------------------|
||--3-0-0-1-0---0-3-0-0-1-0---0-3-0-0-1-0-0-|

6/8


---------------------------------------------------------|

E S E S S S S E S E S S S S E S E S S S S S S S E S E S 3x


|-------------------------------------|-----------------------||
|-------------------------------------|----------------------o||
|-------------------------------------|-----------------------||
|-------------------------------------|-----------------------||
|-------------------------------------|----------------------o||
|-1-0---0-3-0-0-1-0---0-3-0-0-1-0---0-|-3-0-0-1-0-0-1-0---0---||

Gtr I


PM--------------------| PM-------------

S S S E S E S S S S E S E S S S S S S S


||------------------------------------------|
||o-----------------------------------------|
||--------------------------3---------------|
||--------------------------2---------------|
||o-----------------------------------------|
||--3-0-0-1-0---0-3-0-0-1-0---0-3-0-0-1-0-0-|

|
| Gtr I


| PM------| PM--| PM-------------------

| S S S E S E S S S S E S E S S S S S S S


||------------0-----------------------------|
||o-----------2-----------------------------|
||------------3-----------------------------|
||------------------------------------------|
||o-----------------------------------------|
||--3-0-0-1-0---0-3-0-0-1-0---0-3-0-0-1-0-0-|

6/8


---| PM--------| PM------------------------------| PM

E S E S S S S E S E S S S S E S E S S S S S S S E S E S 5x


|-------------------------------------|------------------------||
|-------------------------------------|-----------------------o||
|-------------------3-----------------|-----------------3------||
|-------------------2-----------------|-----------------2------||
|-------------------------------------|-----------------------o||
|-1-0---0-3-0-0-1-0---0-3-0-0-1-0---0-|-3-0-0-1-0-0-1-0---0----||

|


|---| PM----------------------| PM--------------------|

| E S E S S S S E S E S S S S E S E S S S S S S S E S E S 5x


|-----0---------------------------0---|------------------------||
|-----2---------------------------2---|-----------------------o||
|-----3---------------------------3---|------------------------||
|-------------------------------------|------------------------||
|-------------------------------------|-----------------------o||
|-1-0---0-3-0-0-1-0---0-3-0-0-1-0---0-|-3-0-0-1-0-0-1-0---0----||

12/8


PM----| PM----------|

E E. S S S S E S +E S S S S S S S E S


||-----------------------------------------------------------------|
||o----------------------------------------------------------------|
||-----------------------------------------------------------------|
||-----------------------------------------------------------------|
||o----------------------------------------------------------------|
||---6b7---6b7--0-0-0-0--6b7---6b7---(6)-0-0-0-0-0-0-0--6b7---6b7--|

|


| PM----| PM----------|

| E E. S S S S E S +E S S S S S S S E S


||-----------------------------------------------------------------|
||o----------------------------------------------------------------|
||-----------------------------------------------------------------|
||-----------------------------------------------------------------|
||o----------------------------------------------------------------|
||--11b12-11b12-0-0-0-0-11b12-11b12-(11)-0-0-0-0-0-0-0-11b12-11b12-|

6/8


PM----| PM----------------| PM----| PM

+E S S S S E E. S S S S S S S S S S E S +E S S S S E E. S


|----------------------------------------------------------|-----------------------------||
|----------------------------------------------------------|----------------------------o||
|----------------------------------------------------------|-----------------------------||
|----------------------------------------------------------|-----------------------------||
|----------------------------------------------------------|----------------------------o||
|--(6)-0-0-0-0--6b7---6b7--0-0-0-0-0-0-0-0-0-0--6b7---6b7--|--(6)-0-0-0-0--6b7---6b7--0--||

|


| PM----| PM----------------| PM----| PM

| +E S S S S E E. S S S S S S S S S S E S +E S S S S E E. S


|----------------------------------------------------------|-----------------------------||
|----------------------------------------------------------|----------------------------o||
|----------------------------------------------------------|-----------------------------||
|----------------------------------------------------------|-----------------------------||
|----------------------------------------------------------|----------------------------o||
|-(11)-0-0-0-0-11b12-11b12-0-0-0-0-0-0-0-0-0-0-11b12-11b12-|-(11)-0-0-0-0-11b12-11b12-0--||

12/8


PM----| PM----| PM

E E. S S S S E S +E S S S S E E. S


|--------------------------------------------|
|--------------------------------------------|
|--------------------------------------------|
|--------------------------------------------|
|--------------------------------------------|
|--6--6--0-0-0-0--6--6--(6)-0-0-0-0--6--6--0-|

|


| PM----| PM----| PM

| E E. S S S S E S +E S S S S E E. S


|--------------------------------------------|
|--------------------------------------------|
|--------------------------------------------|
|--------------------------------------------|
|--------------------------------------------|
|-10-10--0-0-0-0-10-10-(10)-0-0-0-0-10-10--0-|
PM----| PM----------------|

E E. S S S S E S +E S S S S S S S S S S


|-------------------------------------------------|
|-------------------------------------------------|
|-------------------------------------------------|
|-------------------------------------------------|
|-------------------------------------------------|
|--7--7--0-0-0-0--7--7--(7)-0-0-0-0-0-0-0-0-0-0---|

|


| PM----| PM----------------|

| E E. S S S S E S +E S S S S S S S S S S


|-------------------------------------------------|
|-------------------------------------------------|
|-------------------------------------------------|
|-------------------------------------------------|
|-------------------------------------------------|
|-12-12--0-0-0-0-12-12-(12)-0-0-0-0-0-0-0-0-0-0---|
PM----| PM----| PM-

E E. S S S S E S +E S S S S E E. S


|--------------------------------------------|
|--------------------------------------------|
|--------------------------------------------|
|--------------------------------------------|
|--------------------------------------------|
|--6--6--0-0-0-0--6--6--(6)-0-0-0-0--6--6--0-|

|


| PM----| PM----| PM-

| E E. S S S S E S +E S S S S E E. S


|--------------------------------------------|
|--------------------------------------------|
|--------------------------------------------|
|--------------------------------------------|
|--------------------------------------------|
|-10-10--0-0-0-0-10-10-(10)-0-0-0-0-10-10--0-|
-----------| PM| ~ PM--------|

S S S S S S E E. S E Q S S S S S S


|---------------------------------------|
|---------------------------------------|
|---------------------------------------|
|---------------------------------------|
|---------------------------------------|
|-0-0-0-0-0-0--7--7--0-0-6--0-4-3-2-0-0-|

|


|-----------| PM| ~ PM--------|

| S S S S S S E E. S E Q S S S S S S


|---------------------------------------|
|---------------------------------------|
|---------------------------------------|
|---------------------------------------|
|---------------------------------------|
|-0-0-0-0-0-0-12-12--0-0-6--0-4-3-2-0-0-|
PM----| PM----| PM

E E. S S S S E S +E S S S S E E. S


|--------------------------------------------|
|--------------------------------------------|
|--------------------------------------------|
|--------------------------------------------|
|--------------------------------------------|
|--6--6--0-0-0-0--6--6--(6)-0-0-0-0--6--6--0-|

|


| PM----| PM----| PM

| E E. S S S S E S +E S S S S E E. S


|--------------------------------------------|
|--------------------------------------------|
|--------------------------------------------|
|--------------------------------------------|
|--------------------------------------------|
|-10-10--0-0-0-0-10-10-(10)-0-0-0-0-10-10--0-|
PM----| PM----------------|

E E. S S S S E S +E S S S S S S S S S S


|------------------------------------------------|
|------------------------------------------------|
|------------------------------------------------|
|------------------------------------------------|
|------------------------------------------------|
|--7--7--0-0-0-0--7--7--(7)-0-0-0-0-0-0-0-0-0-0--|

|


| PM----| PM----------------|

| E E. S S S S E S +E S S S S S S S S S S


|------------------------------------------------|
|------------------------------------------------|
|------------------------------------------------|
|------------------------------------------------|
|------------------------------------------------|
|-12-12--0-0-0-0-12-12-(12)-0-0-0-0-0-0-0-0-0-0--|
PM----| PM----| PM-

E E. S S S S E S +E S S S S E E. S


|--------------------------------------------|
|--------------------------------------------|
|--------------------------------------------|
|--------------------------------------------|
|--------------------------------------------|
|--8--8--0-0-0-0--8--8--(8)-0-0-0-0--8--8--0-|

|


| PM----| PM----|

| E E. S S S S E S +E S S S S E E. S


|--------------------------------------------|
|--------------------------------------------|
|--------------------------------------------|
|--------------------------------------------|
|--------------------------------------------|
|-12-12--0-0-0-0-12-12-(12)-0-0-0-0-12-12--0-|
-----------| PM| ~ PM--------|

S S S S S S E E. S E Q S S S S S S


|---------------------------------------||
|---------------------------------------||
|---------------------------------------||
|---------------------------------------||
|---------------------------------------||
|-0-0-0-0-0-0--7--7--0-0-6--0-4-3-2-0-0-||

|


| PM--------| PM| ~ PM--------|

| S S S S S S E E. S E Q S S S S S S


|---------------------------------------||
|---------------------------------------||
|---------------------------------------||
|---------------------------------------||
|---------------------------------------||
|-0-0-0-0-0-0-11-11--0-0-6--0-4-3-2-0-0-||

Q187
[4/4] PM| PM| PM| PM| PM| PM| PM| PM
E E Q E E Q E E Q E E Q E E Q E E Q E E Q E E E E


||----------------|---------------|---------------|-----------------||
||o---------------|---------------|---------------|----------------o||
||----------------|---------------|---------------|-----------------||
||----------------|---------------|---------------|-----------------||
||o-----7------7--|-----7------7--|-----7------7--|-----7----7---7-o||
||--0-0-8--0-0-8--|-0-0-8--0-0-8--|-0-0-7--0-0-7--|-0-0-7--0-6---6--||
PM-------------------------------------------------
|-3-| |-3-| |-3-| |-3-| |-3-| |-3-| |-3-| |-3-|


||--------------------------|-------------------------|
||o-------------------------|-------------------------|
||--8-8-8-8-8-8-8-8-8-8-8-8-|-9-9-9-9-9-9-9-9-9-9-9-9-|
||--------------------------|-------------------------|
||o-------------------------|-------------------------|
||--------------------------|-------------------------|

|


| PM-------------------------------------------------
| |-3-| |-3-| |-3-| |-3-| |-3-| |-3-| |-3-| |-3-|

| E E E E E E E E E E E E E E E E E E E E E E E E


||--------------------------|-------------------------|
||o-------------------------|-------------------------|
||--4-4-4-4-4-4-4-4-4-4-4-4-|-5-5-5-5-5-5-5-5-5-5-5-5-|
||--------------------------|-------------------------|
||o-------------------------|-------------------------|
||--------------------------|-------------------------|
------------------------------------------------------------------------|
|--3--| |--3--| |--3--| |--3--| |--3--| |--3--| |--3--| |--3--|


|-------------------------------------|-----------------------------------------||
|-------------------------------------|----------------------------------------o||
|-11-11-11-11-11-11-11-11-11-11-11-11-|-12-12-12-12-12-12-12-12-12-12-12-12-----||
|-------------------------------------|-----------------------------------------||
|-------------------------------------|----------------------------------------o||
|-------------------------------------|-----------------------------------------||

|


|------------------------------------------------------------------------|
| |--3--| |--3--| |--3--| |--3--| |--3--| |--3--| |--3--| |--3--|

| E E E E E E E E E E E E E E E E E E E E E E E E


|-------------------------------------|-----------------------------------------||
|-------------------------------------|----------------------------------------o||
|--8--8--8--8--8--8--8--8--8--8--8--8-|--9--9--9--9--9--9--9--9--9--9--9--9-----||
|-------------------------------------|-----------------------------------------||
|-------------------------------------|----------------------------------------o||
|-------------------------------------|-----------------------------------------||

2.


PM------------| TP
|--3--| |--3--|

E E E E E E Q +Q W +W


|------------------------------||-------------|------------|
|------------------------------||o------------|------------|
|-12-12-12-12-12-12-9b11r(9)--||--8b9--------|-(8)--------|
|------------------------------||-------------|------------|
|------------------------------||o------------|------------|
|------------------------------||-------------|------------|

|


| PM------------| TP
| |--3--| |--3--|

| E E E E E E Q +Q W +W


|------------------------------||-------------|------------|
|------------------------------||o------------|------------|
|--9--9--9--9--9--9-5b7r(5)--||--4b5--------|-(4)--------|
|------------------------------||-------------|------------|
|------------------------------||o------------|------------|
|------------------------------||-------------|------------|

2.
TP
W +W H Q +Q


|--------------|--------------||-----------------|
|--------------|-------------o||-----------------|
|-11b12--------|-(11)---------||-11----9b11r(9)-|
|--------------|--------------||-----------------|
|--------------|-------------o||-----------------|
|--------------|--------------||-----------------|

|
| TP
| W +W H Q Q


|--------------|--------------||-----------------|
|--------------|-------------o||-----------------|
|--8b9---------|--(8)---------||--8----5b7r5--|
|--------------|--------------||-----------------|
|--------------|-------------o||-----------------|
|--------------|--------------||-----------------|

~~~ PM|
H. Q +Q E E E E E E


|---------------|--------------------|
|---------------|--------------------|
|-/9-------8b9--|-(8)s9-------------|
|---------------|--------10-9-7-9-10-|
|---------------|--------------------|
|---------------|--------------------|

|
| ~~~ PM|
| H. Q Q E E E E E E


|---------------|--------------------|
|---------------|--------------------|
|-/5-------4b5--|--4s5-------------|
|---------------|---------7-5-4-5--7-|
|---------------|--------------------|
|---------------|--------------------|

~~ PM—-|
H. E E E E E E E E S S S S


|---------------|----------------------------|
|---------------|------------8-12-8h12p8-----|
|---------------|---------11-------------11--|
|-9-------------|----9-10--------------------|
|----------10-9-|-10-------------------------|
|---------------|----------------------------|

|
| ~~ PM—-|
| H. E E E E E E E E S S S S


|---------------|----------------------------|
|---------------|------------5--8-5h8p5-----|
|---------------|----------8--------------7--|
|-5-------------|----5--7--------------------|
|-----------7-6-|--7-------------------------|
|---------------|----------------------------|

~~
H. Q +H E +E +E E


|----------------|--------------------------------|
|---------12b13--|-(12)----12pb13r(12)-(12)-11b12-|
|-9--------------|--------------------------------|
|----------------|--------------------------------|
|----------------|--------------------------------|
|----------------|--------------------------------|

|
| ~~
| H. Q +H E +E +E E


|----------------|--------------------------------|
|----------------|--------------------------------|
|-5--------8b9---|--(8)-----9pb11r(9)--(9)--8b9--|
|----------------|--------------------------------|
|----------------|--------------------------------|
|----------------|--------------------------------|

+H. E E E E E E E E S S E


|-----------------|--------------------------|
|-(11)------------|----12--------------------|
|-----------12-11-|-12----12-11s9------------|
|-----------------|---------------10-9h10-9--|
|-----------------|--------------------------|
|-----------------|--------------------------|

|
| H. E E E E E E E E S S E


|-----------------|--------------------------|
|-----------------|--------------------------|
|---8-------------|-----4--------------------|
|------------5--4-|--5-----5--4s2------------|
|-----------------|----------------3-2h3-2--|
|-----------------|--------------------------|
|---3---| |--3--| |---3---| |--3--| |---3---| |--3--| |---3---| |--3--|


|------------------12-15p12------------12-|-17p12------------12-19p14------------14-|
|---------------13------------13----13----|---------13----13------------17----17----|
|------------12------------------12-------|------------12------------------16-------|
|---------14------------------------------|-----------------------------------------|
|-10-15-----------------------------------|-----------------------------------------|
|-----------------------------------------|-----------------------------------------|

|


| PM---| PM---| PM---| PM---|

| E E Q E E Q E E Q E E Q


|-----------------------------------------|-----------------------------------------|
|-----------------------------------------|-----------------------------------------|
|-----------------------------------------|-----------------------------------------|
|-----------------------------------------|-----------------------------------------|
|-------------7-------------------7-------|-------------7-------------------7-------|
|--0----0-----8--------0----0-----8-------|--0----0-----8--------0----0-----8-------|
|---3---| |--3--| |---3---| |--3--| |---3---| |--3--| |---3---| |---3---|


|-19p15--------------------------15-19p15-|-20p15------19p15----18p15------19p15---------|
|---------17------------------17----------|---------17-------17---------17---------17----|
|------------16----------16---------------|----------------------------------------------|
|---------------17----17------------------|----------------------------------------------|
|------------------19---------------------|----------------------------------------------|
|-----------------------------------------|----------------------------------------------|

|


| PM---| PM---| PM---| PM

| E E Q E E Q E E Q E E E E


|-----------------------------------------|----------------------------------------------|
|-----------------------------------------|----------------------------------------------|
|-----------------------------------------|----------------------------------------------|
|-----------------------------------------|----------------------------------------------|
|-------------7-------------------7-------|-------------7-------------7----------7-------|
|--0----0-----7--------0----0-----7-------|--0----0-----7--------0----6----------6-------|

PM| PM| PM| PM|
E E Q E E Q E E Q E E Q


|-------------------------------------|-------------------------------------|
|-------------------------------------|-------------------------------------|
|-------------------------------------|-------------------------------------|
|-------------------------------------|-------------------------------------|
|--------7-----------7----------------|--------7-----------7----------------|
|--0--0--8-----0--0--8----------------|--0--0--8-----0--0--8----------------|

|


| |--3--| |--3--| |--3--| |--3--| |--3--| |--3--| |--3--| |--3--|

| E E E E E E E E E E E E E E E E E E E E E E E E


|-------------12-15p12----------12-15s|20p15----------------------------15-|
|----------13----------13----13-------|-------17----------------------17----|
|-------12----------------12----------|----------17----------------17-------|
|----14-------------------------------|-------------17----------17----------|
|-15----------------------------------|----------------19-15h19-------------|
|-------------------------------------|-------------------------------------|

PM—| PM| PM-| PM
E E Q E E Q E E Q E E E E


|-----------------------|--------------------||
|-----------------------|--------------------||
|-----------------------|--------------------||
|-----------------------|--------------------||
|---------7-------7-----|--------7----7---7--||
|--0----0-7--0-0--7-----|---0--0-7--0-6---6--||

|
| H. Q +H H


|-18b19-----------------|--------------------||
|----------------17b18--|-(17)---------------||
|-----------------------|--------------------||
|-----------------------|--------------------||
|-----------------------|--------------------||
|-----------------------|--------------------||

Q140
12/8
S S S S S S E E. S S S S S S S E E. S E S E S +E S E S E E. S E. E. 4x


||----------------------------------------|--------------------------------||
||o---------------------------------------|-------------------------------o||
||----------------------------------------|--------------------------------||
||--------------2-2----------------2-2----|-----2-2-(2)-------2-2----2--2--||
||o-------------3-3----------------3-3----|-----2-2-(2)-------2-2----1--1-o||
||--5-3-2-3-2-0------0-5-3-2-3-2-0------5-|-3-0---------3-2-0------0-------||

~
S S S S S S S S Q S S S S S S S S S S S S


||---------------------------------------------------|
||o--------------------------------------------------|
||---------------------------------------------------|
||-----------7-9-10-8-9---------7-9-10-8-9----8------|
||o-7-8-9-10-------------7-9-10------------10---10-9-|
||---------------------------------------------------|

|
| ~
| S S S S S S S S Q S S S S S S S S S S S S


||---------------------------------------------------|
||o--------------------------------------------------|
||-----------8-9-11-8-9---------8-9-10-8-9----8------|
||--7-8-9-10-------------7-9-10------------10---10-9-|
||o--------------------------------------------------|
||---------------------------------------------------|

~
S S S S S S S S Q S S S S S S S S S S S S


|----------------------------------------------------||
|---------------------------------------------------o||
|----------------------------------------------------||
|----------7-9-10-8-9---------7-9-10-8-9----8--------||
|-7-8-9-10-------------7-9-10------------10---10-9--o||
|----------------------------------------------------||

|
| ~
| S S S S S S S S Q S S S S S S S S S S S S


|----------------------------------------------------||
|---------------------------------------------------o||
|----------5-8--9-5-8---------5-8--9-5-8----5--------||
|-5-7-8--9-------------5-7--9-------------9----9-7---||
|---------------------------------------------------o||
|----------------------------------------------------||

S S S S S S S S S S S S S S S S S S S S S S S S


|-----------------------------------------------11-12-14-15p12----|
|--------------------------------------10-12-13----------------12-|
|-----------------8-9-11-12s11-9-11-12----------------------------|
|----------7-9-10-------------------------------------------------|
|-7-8-9-10--------------------------------------------------------|
|-----------------------------------------------------------------|

|
| S S S S S S S S S S S S S S S S S S S S S S S S


|------------------------------------------------7--8-10-12p7----|
|---------------------------------------7--8-10-----------------8-|
|-----------------4-5--7--9s7-5--7--9----------------------------|
|----------4-5--7-------------------------------------------------|
|-3-5-6--7--------------------------------------------------------|
|-----------------------------------------------------------------|

~~~
S S S S S S S S S S S S S S S S S S S S S E.


|-17p12----------------------------12s11-------------11-14p11--------|
|-------13----------------------13-------12-------13----------13-----|
|----------14----------------14-------------11h14----------------14--|
|-------------14----------14-----------------------------------------|
|----------------15-12h15--------------------------------------------|
|--------------------------------------------------------------------|

|
| ~~~ ~~~
| S S S S S S E S S S S S S S S S S S S S E.


|-12p8-----------------------------8s7--------------8-11p8--------|
|-------10----------------------10--------7-------10----------10-----|
|-----------9-----------------9--------------8h11----------------11--|
|-------------10----------10-----------------------------------------|
|----------------12-12-----------------------------------------------|
|--------------------------------------------------------------------|
PM-----------------------------------------------------

S S S S S S S S S S S S S S S S S S S S S S S S


|-------------------------------------------------------|
|-------------------------------------------------------|
|-------------------------------------------------------|
|-------------------------------------------------------|
|-------------------------------------------------------|
|-0-0-0-0-0-0-0-0-0-0-0-0--4--3-1-0-1--3--4--3-1-0-1--3-|

|


| PM-----------------------------------------------------

| S S S S S S S S S S S S S S S S S S S S S S S S


|-------------------------------------------------------|
|-------------------------------------------------------|
|-------------------------------------------------------|
|-------------------------------------------------------|
|-------------------------11-10-8-0-8-10-11-10-8-0-8-10-|
|-0-0-0-0-0-0-0-0-0-0-0-0-------------------------------|
-----------------------|

S S S S S S S S S S S S S S S S S S S S S S S S


|-----------------------------------------------------------|
|-----------------------------------------------------------|
|-----------------------------------------------------------|
|---------------------------------10--9--7------------------|
|-------------------------10--9-7----------10--9-7----------|
|-0-0-0-0-0-0-0-0-0-0-0-0--------------------------10--8-7--|

|


|-----------------------|

| S S S S S S S S S S S S S S S S S S S S S S S S


|-----------------------------------------------------------|
|---------------------------------13-12-10------------------|
|-------------------------12-11-9----------12-11-9----------|
|--------------------------------------------------12-10-9--|
|-----------------------------------------------------------|
|-0-0-0-0-0-0-0-0-0-0-0-0-----------------------------------|
PM-----------------------------------------------------

S S S S S S S S S S S S S S S S S S S S S S S S


|-------------------------------------------------------|
|-------------------------------------------------------|
|-------------------------------------------------------|
|-------------------------------------------------------|
|-------------------------------------------------------|
|-0-0-0-0-0-0-0-0-0-0-0-0--4--3-1-0-1--3--4--3-1-0-1--3-|

|


| PM-----------------------------------------------------

| S S S S S S S S S S S S S S S S S S S S S S S S


|-------------------------------------------------------|
|-------------------------------------------------------|
|-------------------------------------------------------|
|-------------------------------------------------------|
|-------------------------11-10-8-0-8-10-11-10-8-0-8-10-|
|-0-0-0-0-0-0-0-0-0-0-0-0-------------------------------|
----------------------------------------------------------|

S S S S S S S S S S S S S S S S S S S S S S S S


|--------------------------------------------------------------|
|--------------------------------------------------------------|
|--------------------------------------------------------------|
|--------------------------------------------------------------|
|--------------------------------------------------------------|
|-0-0-0-0-0-0-0-0-0-0-0-0--4--3--1--4--3--1--5--4--2--5--4--2--|

|


|----------------------------------------------------------|

| S S S S S S S S S S S S S S S S S S S S S S S S


|--------------------------------------------------------------|
|--------------------------------------------------------------|
|-------------------------13-12-10-13-12-10-14-13-11-14-13-11--|
|--------------------------------------------------------------|
|--------------------------------------------------------------|
|-0-0-0-0-0-0-0-0-0-0-0-0--------------------------------------|
PM------------------------------------------------------------|

S S S S S S S S S S S S S S S S S S S S S S S S


||---------------------------------------------------------------------||
||o-------------------------------------------------------------------o||
||---------------------------------------------------------------------||
||---------------------------------------------------------------------||
||o-------------------------------------------------------------------o||
||---6--5--3-0--3--5--6--5--3-0-0-0-0--1--3--4--3--1-0--1--3--4--3--1--||

|


| PM------------------------------------------------------------|

| S S S S S S S S S S S S S S S S S S S S S S S S


||---------------------------------------------------------------------||
||o-------------------------------------------------------------------o||
||--15-14-12-0-12-14-15-14-12-0-0-0-0-10-12-13-12-10-0-10-12-13-12-10--||
||---------------------------------------------------------------------||
||o-------------------------------------------------------------------o||
||---------------------------------------------------------------------||

S S S S S S S S S S S S S S S S S S S S S S S S


|-----------------------------------------------------------------|
|-----------------------------------------------------------------|
|-----------------------------------------------------------------|
|-----------------------------------------------------------------|
|-2-2-2-2-2-2--5--5--5--5--5--5-----------------------------------|
|--------------------------------4--3--1-0--1--3--4--3--1-0--1--3-|

|
| S S S S S S S S S S S S S S S S S S S S S S S S


|-----------------------------------------------------------------|
|-----------------------------------------------------------------|
|-0-0-0-0-0-0-15-15-15-15-15-15-13-12-10-0-10-12-13-12-10-0-10-12-|
|-----------------------------------------------------------------|
|-----------------------------------------------------------------|
|-----------------------------------------------------------------|
PM-------| PM--|

S S S S S S S S S S S S S S S E S S S S S E


|------------------------------------------------------|
|------------------------------------------------------|
|------------------------------------------------------|
|------------------------------------------------------|
|-2-2-2-2-2-2--5--5--5--5--5--5------------------------|
|-------------------------------1-1-1-1--1---1-1-1-----|

|


| PM-------| PM--|

| S S S S S S S S S S S S S S S E S S S S S E


|------------------------------------------------------|
|------------------------------------------------------|
|-0-0-0-0-0-0-15-15-15-15-15-15------------------------|
|------------------------------------------------------|
|------------------------------------------------------|
|-------------------------------1-1-1-1--1---1-1-1-----|

S S S S S S S S S S S S S S S S S S S S S S S S


|-----------------------------------------------------------------|
|-----------------------------------------------------------------|
|-----------------------------------------------------------------|
|-----------------------------------------------------------------|
|-2-2-2-2-2-2--5--5--5--5--5--5-----------------------------------|
|--------------------------------4--3--1-0--1--3--4--3--1-0--1--3-|

|
| S S S S S S S S S S S S S S S S S S S S S S S S


|-----------------------------------------------------------------|
|-----------------------------------------------------------------|
|-0-0-0-0-0-0-15-15-15-15-15-15-13-12-10-0-10-12-13-12-10-0-10-12-|
|-----------------------------------------------------------------|
|-----------------------------------------------------------------|
|-----------------------------------------------------------------|

S S S S S S S S S S S S S S S S S S S S S S S S


|------------------------------------------------------------------|
|------------------------------------------------------------------|
|------------------------------------------------------------------|
|------------------------------------------------------------------|
|-2-2-2-2-2-2--5--5--5--5--5--5------------------------------------|
|--------------------------------4--3--1-0--1--3--4--3--1-0--1--3--|

|
| S S S S S S S S S S S S S S S S S S S S S S S S


|------------------------------------------------------------------|
|------------------------------------------------------------------|
|-0-0-0-0-0-0-15-15-15-15-15-15-13-12-10-0-10-12-13-12-10-0-10-12--|
|------------------------------------------------------------------|
|------------------------------------------------------------------|
|------------------------------------------------------------------|

E. E. E. E. E. E. E. E. E. E. W +E


|-----------------------------|----------------------|
|-----------------------------|----------------------|
|-4S7---7S4---4-------------|----------------------|
|-------------------6---6S3--|--3S6---6--------(6)-|
|-2S5---5S2---2-------------|----------------------|
|-------------------4---4S1--|--1S4---4--------(4)-|

|
| TP TP TP TP TP TP
| E. E. E. E. E. E. E. E. E. E. W +E


|-----------------------------|----------------------|
|-----------------------------|----------------------|
|-0-15--15-12--12--10--10-13--|-13-10--10-------(10)-|
|-----------------------------|----------------------|
|-----------------------------|----------------------|
|-----------------------------|----------------------|

W. W.


|------------------|---------------|
|------------------|---------------|
|------------------|---------------|
|--5---------------|-3-------------|
|--5---------------|-3-------------|
|--3---------------|-1-------------|

|
| W +E Q. W +E Q.


|------------------|---------------|
|-12-----(12)-13---|-9------(9)-8--|
|------------------|---------------|
|--9------(9)-10---|-6------(6)-5--|
|------------------|---------------|
|------------------|---------------|
PM------| PM

W. +H. +E S S S S E E S S


|---------------|---------------------------------------------|
|---------------|---------------------------------------------|
|---------------|-----------------------------------8---------|
|-3-------------|-(3)--------------(3)------------------------|
|-3-------------|-(3)--------------(3)--7--7--7--7-----7------|
|-1-------------|-(1)--------------(1)---------------------0--|

|
| W. +H. +E S S S S E E S S


|---------------|---------------------------------------------|
|-6-------------|-(6)--------------(6)-------------11---------|
|---------------|---------------------------------------------|
|-3-------------|-(3)--------------(3)-10-10-10-10----10------|
|---------------|---------------------------------------------|
|---------------|------------------------------------------0--|
PM--| PM PM----| PM-

S S S E S E S E S E S S S S E S E S


||----------------------------------------|
||o---------------------------------------|
||----------------------------------------|
||----------------------------------------|
||o-------7-7-----7-7------------7--7-----|
||--0-0-0-8-8---0-8-8---0-0-0-0--8--8---0-|

|


| PM--| PM PM----| PM-

| S S S E S E S E S E S S S S E S E S


||----------------------------------------|
||o---------------------------------------|
||----------------------------------------|
||--------9-9-----9-9------------9--9-----|
||o-------7-7-----7-7-----------10-10-----|
||--0-0-0-------0-------0-0-0-0---------0-|
-----| PM PM----| PM

S S S E S E S E S E S S S S E S E S


|---------------------------------------||
|--------------------------------------o||
|---------------------------------------||
|---------------------------------------||
|-------7-7-----7-7-----------7-7------o||
|-0-0-0-7-7---0-7-7---0-0-0-0-6-6---0---||

|


|-----| PM PM----| PM

| S S S E S E S E S E S S S S E S E S


|---------------------------------------||
|--------------------------------------o||
|---------------------------------------||
|-------9-9-----9-9-----------8-8-------||
|-------7-7-----7-7-----------7-7------o||
|-0-0-0-------0-------0-0-0-0-------0---||
PM--| PM PM----| PM-

S S S E S +E S E S +E S S S S E E. S


||-------------------------------------------|
||o------------------------------------------|
||-------------------------------------------|
||-------------------------------------------|
||o------------------------------------------|
||--0-0-0-8-8-(8)-0-8-8-(8)-0-0-0-0--8--8--0-|

|


| PM--| PM PM----| PM-

| S S S E S +E S E S +E S S S S E E. S


||-------------------------------------------|
||o------------------------------------------|
||-------------------------------------------|
||-------------------------------------------|
||o-------7-7-(7)---7-7-(7)---------10-10----|
||--0-0-0---------0---------0-0-0-0--------0-|
-----| PM PM----| PM

S S S E S +E S E S +E S S S S E E. S


|------------------------------------------||
|-----------------------------------------o||
|------------------------------------------||
|------------------------------------------||
|-----------------------------------------o||
|-0-0-0-7-7-(7)-0-7-7-(7)-0-0-0-0-6-6--0---||

|


|-----| PM PM----| PM

| S S S E S +E S E S +E S S S S E E. S


|------------------------------------------||
|-----------------------------------------o||
|------------------------------------------||
|------------------------------------------||
|-------7-7-(7)---7-7-(7)---------7-7-----o||
|-0-0-0---------0---------0-0-0-0------0---||

Q187
[4/4] PM| PM| PM| PM| PM|
E E Q Q E E Q Q E E Q Q E E Q Q E E Q Q Q


||----------------|--------------|---------------|---------------||
||o---------------|--------------|---------------|--------------o||
||----------------|--------------|---------------|---------------||
||----------------|--------------|---------------|---------------||
||o-----7--7------|-7--7------7--|--7------7--7--|-----7--7--7--o||
||--0-0-8--8--0-0-|-8--8--0-0-8--|--7--0-0-7--7--|-0-0-7--7--6---||

|
| PM| PM| PM| PM| PM|
| E E Q Q E E Q Q E E Q Q E E Q Q E E Q Q Q


||----------------|--------------|---------------|---------------||
||o---------------|--------------|---------------|--------------o||
||----------------|--------------|---------------|---------------||
||------9--9------|-9--9------9--|--9------9--9--|-----9--9--8---||
||o-----7--7------|-7--7------7--|-10------7--7--|-----7--7--7--o||
||--0-0-------0-0-|-------0-0----|-----0-0-------|-0-0-----------||

T T T T T
S S S S S S S S S S S S S S S S


||--------------------------------------------------|
||o-20p13p10h13-20p13-20p13p10h13-20p13-20p13p10h13-|
||--------------------------------------------------|
||--------------------------------------------------|
||o-------------------------------------------------|
||--------------------------------------------------|

|
| T T T T T
| S S S S S S S S S S S S S S S S


||--------------------------------------------------|
||o-------------------------------------------------|
||--17p14p11h14-17p14-17p14p11h14-17p14-17p14p11h14-|
||--------------------------------------------------|
||o-------------------------------------------------|
||--------------------------------------------------|

T T T T T
S S S S S S S S S S S S S S S S


|--------------------------------------------------|
|-19p13p10h13-19p13-19p13p10h13-19p13-19p13p10h13--|
|--------------------------------------------------|
|--------------------------------------------------|
|--------------------------------------------------|
|--------------------------------------------------|

|
| T T T T T
| S S S S S S S S S S S S S S S S


|--------------------------------------------------|
|--------------------------------------------------|
|-16p14p11h14-16p14-16p14p11h14-16p14-16p14p11h14--|
|--------------------------------------------------|
|--------------------------------------------------|
|--------------------------------------------------|

T T T T T
S S S S S S S S S S S S S S S S


|----------------------------------------------|
|-19p12p8h12-19p12-19p12p8h12-19p12-19p12p8h12-|
|----------------------------------------------|
|----------------------------------------------|
|----------------------------------------------|
|----------------------------------------------|

|
| T T T T T
| S S S S S S S S S S S S S S S S


|----------------------------------------------|
|----------------------------------------------|
|-16p12p9h12-16p12-16p12p9h12-16p12-16p12p9h12-|
|----------------------------------------------|
|----------------------------------------------|
|----------------------------------------------|

T T T T T
S S S S S S S S S S S S S S S S


|-------------------------------------------------||
|-17p12p8h12-17p12-17p12p8h12-17p12-17p12p8h12---o||
|-------------------------------------------------||
|-------------------------------------------------||
|------------------------------------------------o||
|-------------------------------------------------||

|
| T T T T T
| S S S S S S S S S S S S S S S S


|-------------------------------------------------||
|------------------------------------------------o||
|-14p12p9h12-14p12-14p12p9h12-14p12-14p12p9h12----||
|-------------------------------------------------||
|------------------------------------------------o||
|-------------------------------------------------||

H. Q H E E E E


|-15b17------15--|-14----14----------|
|----------------|----------17-16----|
|----------------|-------------------|
|----------------|----------------17-|
|----------------|-------------------|
|----------------|-------------------|

|
| H. Q H E E E E

To play the this songs, including Neuronal Disorder State by Pantera by ukulele, the most crucial basic ukulele chords to learn are C chord, D chord, G chord, and Em chord.
These set you up to play a many of songs, and each of them is easy to master.

Leave a Reply

Your email address will not be published.