New Drug by Thousand Foot Krutch Ukulele Chords

Posted on

If you are searching for New Drug ukulele chords, you’ve visit to the right site.
You can play versatile instrument New Drug using ukulele or guitar.
This song by Thousand Foot Krutch can also be played by that instruments.
=

New Drug chords has rhythm and included in The Flame in All of Us (2007) album.
You can also find another musical style, including jazz ukulele chords, country music ukulele chords, pop ukulele chords, world music ukulele chords, and rock ukulele chords here.

New Drug by Thousand Foot Krutch Ukulele Chords


Album-The Flame In All Of Us
Drop B Tuning (B-F#-B-E-G#-C#)

Key:
hhammer-on
vvibrato
.palm mute
xmute

Intro


B [---------------------------------------------------]
F#[---------------------------------------------------]
B [--0h2-2-2--2-2-2-2--2-2-2-0--2-2-2--2-2-2-2-0--3v--]
B [-----------------------------------------------]
F#[-----------------------------------------------]
B [--0h2-2-2--2-2-2-2--2-2-2-0--2-2-2--2-2-2-2-0--]

Then


E [--------------------------------------------------]
B [--0h2-2-2--2-2-2-2--2-2-2-0--2-2-2--2-2-2-2-0--3--]
F#[--0h2-2-2--2-2-2-2--2-2-2-0--2-2-2--2-2-2-2-0--3--]
B [--0h2-2-2--2-2-2-2--2-2-2-0--2-2-2--2-2-2-2-0--3--]
E [---------------------------------------------------------]
B [--0h2-2-2--2-2-2-2--2-2-2-0--2-2-2--2-2-2-2--------------]
F#[--0h2-2-2--2-2-2-2--2-2-2-0--2-2-2--2-2-2-2--------------]
B [--0h2-2-2--2-2-2-2--2-2-2-0--2-2-2--2-2-2-2-3-0-0-7-0-0--]

Verse 1


B [----------------------------------------------------]
F#[----------------------------------------------------]
B [--0-2-2-2--2-2-2-2--0-2-2-2-0-2-2-2--2-2-2-2-0--3v--]

. . . . . . . . . . . . . . . . . . . . .


B [----------------------------------------------------]
F#[----------------------------------------------------]
B [--0-2-2-2--2-2-2-2--0-2-2-2-0-2-2-2--2-2-2-2-0--5v--]

. . . . . . . . . . . . . . . . . . . .


E [-----------------------------------------------------------]
B [--------------------------------------------------------3--]
F#[--------------------------------------------------------3--]
B [--0-2-2-2-x-x-2-2-2-2-x-x-0-2-2-2-0-2-2-2-x-x-2-2-2-2-0-3--]

. . . . . . . . . . . . . . . . . . . .


E [-----------------------------------------------------------]
B [--------------------------------------------------------5--]
F#[--------------------------------------------------------5--]
B [--0-2-2-2-x-x-2-2-2-2-x-x-0-2-2-2-0-2-2-2-x-x-2-2-2-2-0-5--]

. . . . . . . . . . . . . . . . . . . .
Chorus


E [-------------------------------------------------------]
B [--0---0--0-8--0---0--0-8--0---0--0-10--0--x-x-0--3--5--]
F#[--0---0--0-8--0---0--0-8--0---0--0-10--0--x-x-0--3--5--]
B [--0---0--0-8--0---0--0-8--0---0--0-10--0--x-x-0--3--5--]
E [-------------------------------------------------------]
B [--0---0--0-8--0---0--0-8--0---0--0-10--8--x-x-0--3--5--]
F#[--0---0--0-8--0---0--0-8--0---0--0-10--8--x-x-0--3--5--]
B [--0---0--0-8--0---0--0-8--0---0--0-10--8--x-x-0--3--5--]

Post-Chorus (NOTE: for the xs, just slide from around the
2nd fret harmonic to the 5th fret harmonic)


E [--------------------------------]
B [----------------------0h7--0h3--]
F#[----------------------0h7--0h3--]
B [--x-x-x-x-x-x-x-x-x-x-0h7--0h3--]

Verse 2


E [---------------------------------------------------]
B [------------------------------------------------3--]
F#[------------------------------------------------3--]
B [--0-2-2-2--2-2-2-2--0-2-2-2-0-2-2-2--2-2-2-2-0--3--]

. . . . . . . . . . . . . . . . . . . .


E [---------------------------------------------------]
B [------------------------------------------------5--]
F#[------------------------------------------------5--]
B [--0-2-2-2--2-2-2-2--0-2-2-2-0-2-2-2--2-2-2-2-0--5--]

. . . . . . . . . . . . . . . . . . . .
Then, Gtr. 1


G#[---------------------------]
E [--13-----14-----16-----19--]
B [---x------x------x------x--]
F#[--11-----12-----14-----17--]
B [---------------------------]

Gtr. 2


E [-----------------------------------------------------------]
B [--------------------------------------------------------3--]
F#[--------------------------------------------------------3--]
B [--0-2-2-2-x-x-2-2-2-2-x-x-0-2-2-2-0-2-2-2-x-x-2-2-2-2-0-3--]

. . . . . . . . . . . . . . . . . . . .


E [-----------------------------------------------------------]
B [--------------------------------------------------------5--]
F#[--------------------------------------------------------5--]
B [--0-2-2-2-x-x-2-2-2-2-x-x-0-2-2-2-0-2-2-2-x-x-2-2-2-2-0-5--]

. . . . . . . . . . . . . . . . . . . .
Then


G#[------------------]
E [--19--19--19--19--]
B [---x---x---x---x--]
F#[--17--17--17--17--]
B [------------------]

(Chorus)

Bridge (the part with the really weird effect)


B [------------------------------------------------------]
F#[------------------------------------------------------]
B [--0--0-10--0--0-10--0--0-3-0--0-10--0--0-10--0-5-0-3--]
B [--------------------------------------------------]
F#[--------------------------------------------------]
B [--0--0-10--0--0-10--0--0-3-0--0-10--0--0-10--0-5--]

Then (my favorite part!!)


E [------------------------------------------------------]
B [--0--0-10--0--0-10--0--0h3-0--0-10--0--0-10--0h5-0h3--]
F#[--0--0-10--0--0-10--0--0h3-0--0-10--0--0-10--0h5-0h3--] 2x
B [--0--0-10--0--0-10--0--0h3-0--0-10--0--0-10--0h5-0h3--]

Then (vol. swell)
E [—–]
B [–0–]
F#[–0–]
B [–0–]

(Chorus 2x)

To play the most songs, including New Drug by Thousand Foot Krutch by ukulele, the most crucial basic ukulele chords to learn are C chord, D chord, G chord, and Em chord.
These set you up to play a ton of songs, and each of them is easy to master.

Gravatar Image
Like to play Ukulele and Sudoku Game

Leave a Reply

Your email address will not be published. Required fields are marked *