No Apologies by Sick of It All Ukulele Chords

Posted on

If you are looking for No Apologies ukulele chords, you have come to the right site.
You can play versatile instrument No Apologies using ukulele or guitar.
This song by Sick of It All can also be played by that instruments.
=

No Apologies chords has rhythm and included in Yours Truly (2000) album.
You can also find other musical style, including jazz ukulele chords, country music ukulele chords, pop ukulele chords, world music ukulele chords, and rock ukulele chords here.

No Apologies by Sick of It All Ukulele Chords


intro

---------------------------------999999999999999912(x8)-11(x8)-
-----------------9999999999999999--------------------------------------
-6666666666666666--------------------------------------------------
----------------------------------------------------------------------
-----------------------------------------------------------------
------------------------------------------------------------------

verse


-----------------------------------------------------------------
-----------------------------------------------------------------
-----------------------------------------------------------------
-----------------------------------------------------------------
-4-4-4-4-7-7-7-7-4-4-4-4-7-7-7-7-4-4-4-4-7-7-7-7-----------------
-------------------------------------------------5-5-5-5-4-4-4-4-

bridge


-------
-------
-------

[-2-4-5-]
[-2-4-5-]-0-2-3-

slide


-----------------
-----------------
-----------------
-----------------
-----------------

-21\\\\\\0-

bridge 2


-------------------------
-------------------------
-------------------------
-------------------------
-------------7-7-7-------
-2-2-2-4-5-5-------5-7---

bridge 3


-------------------------
-------------------------
-------------------------
-------------------------
-9-9-9-7-5-5-7-7-7-------
-------------------5-7---

royro plays bass for inane: www.inane.8k.com
o, now shut up

To play the most songs, including No Apologies by Sick of It All by ukulele, the most important basic ukulele chords to learn are C chord, D chord, G chord, and Em chord.
These set you up to play a many of songs, and each of them is easy to learn.

Gravatar Image
Like to play Ukulele and Sudoku Game

Leave a Reply

Your email address will not be published. Required fields are marked *