Nouvelle vague by Yel Ukulele Chords

Posted on

If you are looking for Nouvelle vague ukulele chords, you have visit to the right place.
You can play versatile instrument Nouvelle vague using ukulele or guitar.
This song by Yel can also be played by that instruments.
=

Nouvelle vague chords has rhythm and included in album.
You can also find other musical genres, including jazz ukulele chords, country music ukulele chords, pop ukulele chords, world music ukulele chords, and rock ukulele chords here.

Nouvelle vague by Yel Ukulele Chords


-----------------------------------------------------------------------------------------------

YEL


-----------------------------------------------------------------------------------------------

Nouvelle Vague
Tab for the 2 guitars


----------------------------------------------------------------------------

> Yel is a belgian rock band. They made 3 CDs and will soon make the 4th one.
The Edition is Team For Action and the Label is VivaDisc (Universal Music ditribution)

And here are the official websites:
Myspace Yel:
http://www.myspace.com/groupeyel

Yel Website (under construction)
http://www.yel.be/
(for the moment the website is under construction. There’s nothing on it,
except some songs, allowing you to hear how they play live. But those
aren’t the studios versions from the cds).

> If you want to know everything, the Edition of the CDs is Team For Action
and the Label is Viva Disc (Universal Music distribution)
> www.vivanova.be
> www.t4a.com

Here’s the proof:
http://www.vivadisc.be/start.php?dpt3&rub20&id36
http://www.t4a.com/component/page,shop.product_details/flypage,shop.flypage_t4a/pr
oduct_id,4/category_id,3/manufacturer_id,0/option,com_virtuemart/Itemid,1/lang,fr/
http://www.t4a.com/component/page,shop.product_details/flypage,shop.flypage_t4a/pr
oduct_id,9/category_id,3/manufacturer_id,0/option,com_virtuemart/Itemid,1/lang,fr/
http://www.t4a.com/component/page,shop.product_details/category_id,10/flypage,shop
.flypage/product_id,10/option,com_virtuemart/Itemid,1/lang,fr/

____________________________________________________________________________
NOUVELLE VAGUE TAB:

There are two guitars. The tab shows what the two of them play at the same time.
_______________________________________________________________________________________________

>1. BEGINNING
_____________

At first there’s only one guitar playing.
Pour commencer, seule une guitare joue.

GUITAR 1


--------

The guitar1 plays those two times


E|-----------------|-----------------|-----------------|-----------------|
B|--15~~~~~~~~~~~~-|--14~~~~~~~~~~~~-|-----------------|-----------------|
G|-----------------|-----------------|--12~~~~~~~~~~~~-|-----------------|
D|-----------------|-----------------|-----------------|--14~~~~~~~~~~~~-|
A|-----------------|-----------------|-----------------|-----------------|
E|-----------------|-----------------|-----------------|-----------------|

_______________________________________________________________________________________________

>2. INTRO PART1
_______________

The first guitar keeps on playing two times the same things while the second
one starts playing.
La 1e guitare rejoue a mme chose et la 2e commencejouer.

GUITAR 1


--------

Play this two times again:
Rejouer ceci deux fois:


E|-----------------|-----------------|-----------------|-----------------|
B|--15~~~~~~~~~~~~-|--14~~~~~~~~~~~~-|-----------------|-----------------|
G|-----------------|-----------------|--12~~~~~~~~~~~~-|-----------------|
D|-----------------|-----------------|-----------------|--14~~~~~~~~~~~~-|
A|-----------------|-----------------|-----------------|-----------------|
E|-----------------|-----------------|-----------------|-----------------|

GUITAR 2


--------

Play this two times:
Jouer ceci deux fois:


E|-----------------|-----------------|-----------------|-----------------|
B|-----------------|-----------------|-----------------|-----------------|
G|-----------------|-----------------|-----------------|-----------------|
D|--9---9---9---9--|--9---9---9---9--|--9---9---9---9--|--9---9---9---9--|
A|-----------------|-----------------|-----------------|-----------------|
E|-----------------|-----------------|-----------------|-----------------|

_______________________________________________________________________________________________

>3. INTRO PART2
_______________

GUITAR 1


--------

Now you have to play this (Q means 1/4, H means half, H with a dot means 3/4)
(The empty space means Q silence)

Maintenant vient ceci (Q signifie 1 temps, H signifie 2 temps,
H. signifie 3 temps, l’espace vide signifie un silence d’un temps)

Q H. Q H. Q H. Q H.


E|-----------------|-----------------|-----------------|-----------------|
B|--10-------------|-----------------|--10-------------|-----------------|
G|-----------------|-----------------|-----------------|-----------------|
D|-------12--------|-- --12---------|-------12--------|-- --12---------|
A|-----------------|-----------------|-----------------|-----------------|
E|-----------------|-----------------|-----------------|-----------------|
------------------|-----------------|-----------------|-----------------|
---10-------------|-----------------|--10-------------|-----------------|
------------------|-- --9----------|-----------------|-----------------|
--------12--------|-----------------|-------11--------|-- --12---------|
------------------|-----------------|-----------------|-----------------|
------------------|-----------------|-----------------|-----------------|

GUITAR 2


--------
E|-----------------|-----------------|-----------------|-----------------|
B|-----------------|-----------------|-----------------|-----------------|
G|-----------------|--11--11--11--11-|--11-------------|--7---7---7---7--|
D|--9---9---9---9--|-----------------|------9---9---9--|-----------------|
A|-----------------|-----------------|-----------------|-----------------|
E|-----------------|-----------------|-----------------|-----------------|
------------------|-----------------|-----------------|-----------------|
------------------|-----------------|-----------------|-----------------|
------------------|--11--11--11--11-|--11-------------|--7---7---7---7--|
---9---9---9---9--|-----------------|------9---9---9--|-----------------|
------------------|-----------------|-----------------|-----------------|
------------------|-----------------|-----------------|-----------------|

_______________________________________________________________________________________________

>4. VERSE
_________

GUITAR 1


--------

The guitar plays nothing while the other one plays chords, and then it plays
the same as the end of INTRO PART2. Then nothing again and then 4 notes.

La guitare au couplet ne joue d’abord rien pendant 4 mesures, puis elle
refait la mme chose que les 4 dernires mesures de l’intro part2. Puis
nouveau rien 4 mesures, puis 4 notes.


E|----|----|----|----|-------------|------------|------------|-------------|
B|----|----|----|----|--10---------|------------|--10--------|-------------|
G|----|----|----|----|-------------|-- --9-----|------------|-------------|
D|----|----|----|----|------12-----|------------|------11----|-- --12-----|
A|----|----|----|----|-------------|------------|------------|-------------|
E|----|----|----|----|-------------|------------|------------|-------------|
----|----|----|----|-------------|------------|------------|-------------|
----|----|----|----|-------------|------------|------------|-------------|
----|----|----|----|-------------|-- --9-----|------------|-------------|
----|----|----|----|-- --12-----|------------|-- --11----|-- --12-----|
----|----|----|----|-------------|------------|------------|-------------|
----|----|----|----|-------------|------------|------------|-------------|

Q H. Q H. Q H. Q H.

GUITAR 2


--------

This guitar plays chords, then notes, then chords.
(E means 1/8, E. means 3/16, S means 1/16)
(E est une croche, E. croche pointe, S double croche)

E E H. E E H. E E H. E E H.


E|-----------------|-----------------|-----------------|-----------------|
B|-----------------|-----------------|-----------------|-----------------|
G|--4--4---- ---|--4--4---- ---|--7--7---- ---|-----------------|
D|--4--4---- ---|--4--4---- ---|--7--7---- ---|--5--5---- ---|
A|--2--2---- ---|--2--2---- ---|--5--5---- ---|--5--5---- ---|
E|-----------------|-----------------|-----------------|--3--3---- ---|
------------------|-----------------|-----------------|-----------------|
------------------|-----------------|-----------------|-----------------|
------------------|--11--11--11--11-|-----------------|--7---7---7---7--|
---9---9---9---9--|-----------------|--9---9---9---9--|-----------------|
------------------|-----------------|-----------------|-----------------|
------------------|-----------------|-----------------|-----------------|
------------------|-----------------|-----------------|-----------------|
------------------|-----------------|-----------------|-----------------|
---4--4---- ---|--4--4---- ---|--7--7---- ---|-----------------|
---4--4---- ---|--4--4---- ---|--7--7---- ---|--5--5---- ---|
---2--2---- ---|--2--2---- ---|--5--5---- ---|--5--5---- ---|
------------------|-----------------|-----------------|--3--3---- ---|

( Tab from: http://www.guitartabs.cc/tabs/y/yel/nouvelle_vague_tab.html )
E E E. SSSE E SS E E E SSSSE E SS E E E. SSSE E SS SSE E SSSSE Q


-------------------|------------------|------------------|----------------|
-------------------|------------------|------------------|----------------|
-------------------|-7-7-7-77766-6-66-|------------------|----------------|
--9-9-9--9999-9-99-|-7-7-7-77766-6-66-|-7-7-7--7777-7-77-|-799-9-99944-4--|
--9-9-9--9999-9-99-|-5-5-5-55544-4-44-|-7-7-7--7777-7-77-|-799-9-99944-4--|
--7-7-7--7777-7-77-|------------------|-5-5-5--5555-5-55-|-577-7-77722-2--|

_______________________________________________________________________________________________

>5. PRECHORUS
_____________

GUITAR 1


--------

Play this two times:
Jouer deux fois ceci:

Q E. E S S S S S S S


E|----|----|-----------------------------|-----------------------------|
B|----|----|---------------8-8-8-8-8-8-8-|---------------8-8-8-8-8-8-8-|
G|----|----|---------------7-7-7-7-7-7-7-|---------------7-7-7-7-7-7-7-|
D|----|----|--9-----9---9----------------|--9-----9---9----------------|
A|----|----|-----------------------------|-----------------------------|
E|----|----|-----------------------------|-----------------------------|

GUITAR 2


--------

Play this two times:
Jouer deux fois ceci:

E E H. E E H. Q E SE. E E E


E|--------------|--------------|-----------------|-----------------|
B|--------------|--------------|-----------------|-----------------|
G|--------------|--------------|-----------------|-----------------|
D|--5-5---------|--7-7---------|-9---9--9--7-5-7-|-9---9--9--7-5-7-|
A|--5-5---------|--7-7---------|-9---9-99--7-5-7-|-9---9-99--7-5-7-|
E|--3-3---------|--5-5---------|-7---7-77--------|-7---7-77--------|

_______________________________________________________________________________________________

>6. CHORUS
__________

The first chorus is played once completely, then it is kinda “cutted”
the second time.
Le premier refrain est jou normalement puis “coup” au milieu de la
rptition).

GUITAR 1


--------
E|-----------------|-----------------|-----------------|-----------------|
B|-----------------|--8--------------|-----------------|-----------------|
G|--7--------------|--6--------------|--7--------------|-----------------|
D|-----------------|-----------------|--9--------------|--7--------------|
A|-----------------|-----------------|-----------------|-----------------|
E|-----------------|-----------------|-----------------|-----------------|
-----------------|-----------------|- -7/19-19/21--|--21--19--21------|
-----------------|--8--------------|----------------|------------------|
--7--------------|--6--------------|----
-----------------|-----------------|--
-----------------|-----------------|-
-----------------|-----------------|

GUITAR 2


--------

Q E. SSSE E SS


E|------------------|------------------|------------------|------------------|
B|------------------|--8--8--8888-8-88-|------------------|------------------|
G|--4--4--4444-4-44-|--6--6--6666-6-66-|------------------|--6--6--6666-6-66-|
D|--5--5--5555-5-55-|--7--7--7777-7-77-|--9--9--9999-9-99-|--7--7--7777-7-77-|
A|--5--5--5555-5-55-|--7--7--7777-7-77-|--9--9--9999-9-99-|--7--7--7777-7-77-|
E|--3--3--3333-3-33-|------------------|--7--7--7777-7-77-|--5--5--5555-5-55-|


E|------------------|------------------|----|----|
B|------------------|--8--8--8888-8-88-|----|----|
G|--4--4--4444-4-44-|--6--6--6666-6-66-|----|----|
D|--5--5--5555-5-55-|--7--7--7777-7-77-|----|----|
A|--5--5--5555-5-55-|--7--7--7777-7-77-|----|----|
E|--3--3--3333-3-33-|------------------|----|----|

_______________________________________________________________________________________________

>7. VERSE
_________

You can play again exactly what you played during “4. VERSE”.
Vous pouvez rejouer le point 4: Verse (couplet).

_______________________________________________________________________________________________

>8. PRECHORUS
_____________

You can play again exactly what you played during “5. PRECHORUS”.
Vous pouvez rejouer le point 5: Prechorus (Prrefrain).

_______________________________________________________________________________________________

>9. CHORUS
__________

Same chorus, but not “cutted” anymore.
A nouveau le refrain, mais il n’est plus coup.

GUITAR 1


--------

Play two times:
Jouer 2 fois:


E|-----------------|-----------------|-----------------|-----------------|
B|-----------------|--8--------------|-----------------|-----------------|
G|--7--------------|--6--------------|--7--------------|-----------------|
D|-----------------|-----------------|--9--------------|--7--------------|
A|-----------------|-----------------|-----------------|-----------------|
E|-----------------|-----------------|-----------------|-----------------|

GUITAR 2


--------

Play two times:
Jouer 2 fois:

Q E. SSSE E SS


E|------------------|------------------|------------------|------------------|
B|------------------|--8--8--8888-8-88-|------------------|------------------|
G|--4--4--4444-4-44-|--6--6--6666-6-66-|------------------|--6--6--6666-6-66-|
D|--5--5--5555-5-55-|--7--7--7777-7-77-|--9--9--9999-9-99-|--7--7--7777-7-77-|
A|--5--5--5555-5-55-|--7--7--7777-7-77-|--9--9--9999-9-99-|--7--7--7777-7-77-|
E|--3--3--3333-3-33-|------------------|--7--7--7777-7-77-|--5--5--5555-5-55-|

_______________________________________________________________________________________________

>10. BRIDGE
___________

GUITAR 1


--------

Play this two times:
Jouer 2 fois ceci:


E|--5-----------|-------|--5----------|-------|
B|--3-----------|-------|--3----------|-------|
G|--4-----------|-------|--4----------|-------|
D|--------------|-------|-------------|-------|
A|--------------|-------|-------------|-------|
E|--------------|-------|-------------|-------|

GUITAR 2


--------

Play this two times:
Jouer 2 fois ceci:


E|------------------|-----------------|-----------------|-----------------|
B|------------------|-----------------|-----------------|-----------------|
G|------------------|--11--11--11--11-|-----------------|--7---7---7---7--|
D|---9---9---9---9--|-----------------|--9---9---9---9--|-----------------|
A|------------------|-----------------|-----------------|-----------------|
E|------------------|-----------------|-----------------|-----------------|

_______________________________________________________________________________________________

>11. ENDING
___________

GUITAR 1


--------
E|-------------|------------|------------|-------------|
B|-------------|------------|------------|-------------|
G|-------------|-- --9-----|------------|-------------|
D|-- --12-----|------------|-- --11----|-- --12-----|
A|-------------|------------|------------|-------------|
E|-------------|------------|------------|-------------|
--------------|------------|------------|-------------|----||
--------------|------------|------------|-------------|----||
--------------|-- --9-----|------------|-------------|----||
--- --12-----|------------|-- --11----|-- --12-----|----||
--------------|------------|------------|-------------|----||
--------------|------------|------------|-------------|----||

GUITAR 2


--------

“b” means full bend.


E|-------------------|------------------|------------------|----------------|
B|-------------------|------------------|------------------|----------------|
G|-------------------|-7-7-7-77766-6-66-|------------------|----------------|
D|--9-9-9--9999-9-99-|-7-7-7-77766-6-66-|-7-7-7--7777-7-77-|-799-9-99944-4--|
A|--9-9-9--9999-9-99-|-5-5-5-55544-4-44-|-7-7-7--7777-7-77-|-799-9-99944-4--|
E|--7-7-7--7777-7-77-|------------------|-5-5-5--5555-5-55-|-577-7-77722-2--|

E E E. SSSE E SS E E E SSSSE E SS E E E. SSSE E SS SSE E SSSSE Q


-------------------|------------------|------------------|-----------------|
-------------------|------------------|------------------|-----------------|
-------------------|-7-7-7-77766-6-66-|------------------|-----------------|
--9-9-9--9999-9-99-|-7-7-7-77766-6-66-|-7-7-7--7777-7-77-|-799-9-999-4-4-9-|
--9-9-9--9999-9-99-|-5-5-5-55544-4-44-|-7-7-7--7777-7-77-|-799-9-999-4-4-9-|
--7-7-7--7777-7-77-|------------------|-5-5-5--5555-5-55-|-577-7-777-7-7-7-|

E E E. SSSE E SS E E E SSSSE E SS E E E. SSSE E SS SSE E SSE E E E


----------------------||
----------------------||
----------------------||
----------------------||
----------------------||
--5b---5b---5b---5b---||

The tab is finished, have fun 😉
To summerize: beginning > intro > verse > prechorus > chorus > verse > prechorus
> chorus > bridge > ending

Hope you enjoy ^^

To play the most songs, including Nouvelle vague by Yel by ukulele, the most important basic ukulele chords to learn are C chord, D chord, G chord, and Em chord.
These set you up to play a ton of songs, and each of them is easy to master.

Leave a Reply

Your email address will not be published.