Off the Rack by Triggerfinger Ukulele Chords

Posted on

If you are looking for Off the Rack ukulele chords, you have come to the right place.
You can play versatile instrument Off the Rack using ukulele or guitar.
This song by Triggerfinger can also be played by that instruments.
=

Off the Rack chords has rhythm and included in By Absence of the Sun (2014) album.
You can also get other musical genres, including jazz ukulele chords, country music ukulele chords, pop ukulele chords, world music ukulele chords, and rock ukulele chords here.

Off the Rack by Triggerfinger Ukulele Chords


Intro (x2)

e|-------------------------|-------------------------------------------------|
B|-------------------------|-------------------------------------------------|
G|-------------------------|-------------------------------------------------|
D|-2-1---------------------|--2-2-1--------------------2-1-------------------|
A|------4-2--4--2----------|--------4-2--4--2--------------4-2--4--2---------|
E|-----------------2br-0-0-|------------------2br-0-0----------------2br-0-0-|

Verse and Chorus end on |or


e|---------------------------------------------------------------------------|
B|---5---------5-------------------------------------------------------------|
G|---6-(1 bar)-6-(1 bar)-4-(1 bar)-8-(1 bar)--9-8----9-11--------------------|
D|---7---------6---------5---------9----------9-9----9-9---------------------|
A|-------------4---------5---------9----------9-9----9-9---------------------|
E|-----------------------3---------7----------7-7----------------------------|


Example
(Verse)
Through grand magazines who were quick to promote
Her well-stocked euphoria
Through seasonal catalogs
Featuring the latest zigzag, saw tooth, sun-ray
(optional ending)
And rectilinear patterns

(Chorus)
Calling out, Calling out, Calling

Through the hide and seek
Calling out
B (optional ending)
Calling out, Calling out, Calling

Chorus Lead (let ring)


e|---------------------------------------------------------------------------|
B|-------------------------------------12------------------------------------|
G|---12b(13)-------(13)pbr12--------12---------------------------------------|
D|---------------------------------------------------------------------------|
A|---------------------------------------------------------------------------|
E|---------------------------------------------------------------------------|

Solo


e|---------------------------------------------------------------------------|
B|---------------------------------------------------------------------------|
G|---------------------------------------------------------------------------|
D|--7~--7-7-9-7-82-2---------6-7-6-5---5-5-5-5-7-5-/9-----------------------|
A|---------------------------------------------------------------------------|
E|---------------------------------------------------------------------------|
e|---------------------------------------------------------------------------|
B|-----------------------12--------------------------------------------------|
G|--------------9--11brb----11br-9-------------------------------------------|
D|---9-9-9-9h11--------------------------------------------------------------|
A|---------------------------------------------------------------------------|
E|---------------------------------------------------------------------------|

NOTES
Verse I,II & Chorus I, II: play the four chords, the ending is optional.
Chorus Lead: After the first ?Calling out, Calling out, Calling? this little lead lick is played.
The bends are very slow.

LYRICS
(Intro)
(Verse I)
Through grand magazines who were quick to promote
Her well-stocked euphoria
Through seasonal catalogues
Featuring the latest zigzag, saw tooth, sun-ray
And rectilinear patterns
I picture her against a similarly geometric background
Through the smoke and mirrors
She peeled from the pack
I threw it to the wind
Not to lose the clues
I’m reaching out, I’m calling

(Chorus I)
Calling out, Calling out, Calling
Through the hide and seek
Calling out
Calling out, Calling out, Calling
Calling out, Calling out, Calling
To the hum and heat
Calling out
Calling out, Calling out, Calling

(Verse II)
Her modern style was sleek, subtle and sensual
Its simplicity alone was a radical
Departure from the overwrought complexity of sin
Not to misread, not to bruise
Moving up slowly

(Solo)
(Chorus II)
Calling out, Calling out, Calling
A living sense of play
Calling out
Calling out, Calling out, Calling
Calling out, Calling out, Calling
I won’t back away
Calling out
Calling out, Calling out, Calling
Calling out, Calling out, Calling
Calling out, Calling out, Calling

To play the this songs, including Off the Rack by Triggerfinger by ukulele, the most crucial basic ukulele chords to learn are C chord, D chord, G chord, and Em chord.
These set you up to play a ton of songs, and each of them is easy to learn.

Leave a Reply

Your email address will not be published.