Only You by Mac DeMarco Ukulele Chords

Posted on

If you are searching for Only You ukulele chords, you’ve come to the best site.
You can play versatile instrument Only You using ukulele or guitar.
This song by Mac DeMarco can also be played by that instruments.
=

Only You chords has rhythm and included in Rock and Roll Night Club (2012) album.
You can also get other musical genres, including jazz ukulele chords, country music ukulele chords, pop ukulele chords, world music ukulele chords, and rock ukulele chords here.

Only You by Mac DeMarco Ukulele Chords

Introduction

d|--5-------------------------------------------|
A|--5-----5-------------------------------------|
F#|-5---x-5-----------5-----------5-----7---7---|
D|--5---x-5-----------5-----------5-----7---7---|
A|--7---x-7-----------7-----------7-----9---9---|
D|--5---x-5--5--5--5--5--5--5--5--5--7--7---7---|

(half) barre this chord
[/] [/]


d|------------------------------------------------------------------------------------------|
A|-----------------------------------5-------------5--------------------------------7---7---|
F#|-5--------5-----------5-----------5-----7---7---5--------5-----------5---8---8---7---7---|
D|--5--------5-----------5-----------5-----7---7---5--------5-----------5---9---9---7---7---|
A|--7--------7-----------7-----------7-----9---9---7--------7-----------7---x---x---0---0---|
D|--5--5--5--5--5--5--5--5--5--5--5--5--7--7---7---5--5--5--5--5--5--5--5---9---9-----------|

| |


d|---------------------------------------| This chord's fingering is written out
A|--5------------------------------------| in my introduction.
F#|-5--------5-----------5-----------5---|
D|--5--------5-----------5-----------5---|
A|--7--------7-----------7-----------7---|
D|--5--5--5--5--5--5--5--5--5--5--5--5---|

First Verse


d|-----------------------------------------------------------|
A|-----------------------------------------------------------|
F#|----7--7---5--------5-----------5-----------5-----7---7---|
D|-----7--7---5--------5-----------5-----------5-----7---7---|
A|-----9--9---7--------7-----------7-----------7-----9---9---|
D|--7--7--7---5--5--5--5--5--5--5--5--5--5--5--5--7--7---7---|

Only…you………….. Only…..


d|-------------------------------------------------------------------------------------------|
A|-----------------------------------------------------------------------------------7---7---|
F#|-5--------5-----------5-----------5-----7---7---5--------5-----------5---8---8----7---7---|
D|--5--------5-----------5-----------5-----7---7---5--------5-----------5---9---9----7---7---|
A|--7--------7-----------7-----------7-----9---9---7--------7-----------7---x---x----0---0---|
D|--5--5--5--5--5--5--5--5--5--5--5--5--7--7---7---5--5--5--5--5--5--5--5---9---9------------|

you………………. Only….you………….. treat me like you


d|-------------------------------------------------------------------------------------|
A|-----------------------------------5-------------------------------------------------|
F#|-5--------5-----------5-----------5-----7---7---5--------5-----------5-----------5--|
D|--5--------5-----------5-----------5-----7---7---5--------5-----------5-----------5--|
A|--7--------7-----------7-----------7-----9---9---7--------7-----------7-----------7--|
D|--5--5--5--5--5--5--5--5--5--5--5--5--7--7---7---5--5--5--5--5--5--5--5--5--5--5--5--|

do…………… And only she……………….


d|------------------------------------------------------------------------------------------------------|
A|----------------------------------------------------7---7---5---------------------------------7---7---|
F#|----7---7---5--------5-----------5-----------5-----7---7---5--------5-----------5---8---8----7---7---|
D|-----7---7---5--------5-----------5-----------5-----7---7---5--------5-----------5---9---9----7---7---|
A|-----9---9---7--------7-----------7-----------7-----9---9---7--------7-----------7---x---x----0---0---|
D|--7--7---7---5--5--5--5--5--5--5--5--5--5--5--5--7--7---7---5--5--5--5--5--5--5--5---9---9------------|

only she………………… only she…………. shows me where I


d|-----------------------------------------------------------------------------5------------|
A|--5---------------------------------7---7---5--------------------------------5------------|
F#|-5--------5-----------5---8---8----7---7---5--------5-----------5-----------5------------|
D|--5--------5-----------5---9---9----7---7---5--------5-----------5-----------5------------|
A|--7--------7-----------7---x---x----0---0---7--------7-----------7-----------7----7--7--7-|
D|--5--5--5--5--5--5--5--5---9---9------------5--5--5--5--5--5--5--5--5--5--5--5----5--5--5-|

be…….. So sorry blue we’re through………………………..

First Chorus
notes inside ( ) optional
(half) barre / / /
[/] [/] [/] [/] [/] [/] [/]


d|--------------------------------------------------------------------------------------------------|
A|--------------5--5--5--5--------------------------------------------------------0-----------------|
F#|-------------5--5--5--5-----------------------------------0-----------0--------0-----------------|
D|--------------5--5--5--5-----------------------------------0-----------0--------0-----------------|
A|--7--7--7--7--0--0--0--0-(0)(0)(0)(0)(0)(0)(0)(0)-7--7--7--7--7--7--7--7--7--7--7--7--------2--4--|
D|--5--5--5--5--------------7--7--9--9--7--7--9--9--5--5--5--5--5--5--5--5--5--5--5--5--2--4--------|

( p a l m m u t e )
‘Cause I’m……done……cryin……..over…….


d|--------------------------------------------------------------------------------------------------|
A|--------------5--5--5--5--------------------------------------------------------------------------|
F#|-------------5--5--5--5-----------------------------------------0-----------0--------------------|
D|--------------5--5--5--5-----------------------------------------0-----------0--------------------|
A|--7--7--7--7--0--0--0--0--------------------------7--7--7--7--7--7--7--7--7--7--7--7--------2--4--|
D|--5--5--5--5--------------7--7--9--9--7--7--9--9--5--5--5--5--5--5--5--5--5--5--5--5--2--4--------|

I’m………done……..cryin…….over………………….. My..


d|--------------------------------------------------------------------------------------------------|
A|--------------5--5--5--5--------------------------------------------------------0-----------------|
F#|-------------5--5--5--5-----------------------------------------------0--------0-----------------|
D|--------------5--5--5--5-----------------------------------0-----------0--------0-----------------|
A|--7--7--7--7--0--0--0--0--------------------------7--7--7--7--7--7--7--7--7--7--7--7--------2--4--|
D|--5--5--5--5--------------7--7--9--9--7--7--9--9--5--5--5--5--5--5--5--5--5--5--5--5--2--4--------|

hands…….hurt…..I think I’ll go….lay…down…………. Since


d|---------------------------------------------------------------------------------------|
A|--------------5--5--5--5---------------------------------------------------------------|
F#|-------------5--5--5--5-----------------------------------0-----------0--------0------|
D|--------------5--5--5--5-----------------------------------0-----------0--------0------|
A|--7--7--7--7--0--0--0--0--------------------------7--7--7--7--7--7--7--7--7--7--7--7---|
D|--5--5--5--5--------------7--7--9--9--7--7--9--9--5--5--5--5--5--5--5--5--5--5--5--5---|

..I’m………done……..cryin…….over…………..

Second Verse (repeat “First Verse” tab)

Here I am… brand new day

Now there’s you, let me show you blue…

That only she… only she…

Only she… shows me where I be

So sorry blue, we’re through…

Second Chorus (repeat “First Chorus” tab)

‘Cause I’m done cryin over…

I’m done cryin over…

I’m done cryin over…

My hands hurt, I think I’ll go lay down… (at this point proceed to Outro tab)

Outro


d|--------------------------------------------------------------------------------------------------|
A|--------------------------------------------------------------------------------------------------|
F#|----------------------------------0--------0--------------------------0-----------0--------------|
D|-----------------------0-----------0--------0--------------------------0-----------0--------------|
A|--------2--4--9--9--9--9--9--9--9--9--9--9--9--9--------7--9--7--7--7--7--7--7--7--7--7--7--7--7--|
D|--2--4--------7--7--7--7--7--7--7--7--7--7--7--7--7--9--------5--5--5--5--5--5--5--5--5--5--5--5--|

Lay down…………………….. Lay down……………………………


d|--------------------------------------------------------------------------------------------------|
A|--------------------------------------------------------------------------------------------------|
F#|----------------------0-----------0--------------------------------------------------------------|
D|-----------------------0-----------0--------0-----------------------------------------------------|
A|--------2--4--9--9--9--9--9--9--9--9--9--9--9--9--------7--9--7--7--7--7--7--7--7--7--7--7--7--7--|
D|--2--4--------7--7--7--7--7--7--7--7--7--7--7--7--7--9--------5--5--5--5--5--5--5--5--5--5--5--5--|

Lay down…………………….. Lay down………………………………


d|------------------------------------------------------7---7-----5------|
A|------------------------------------------------------7---7-----5------|
F#|-----------------------------------------------------7---7-----5------|
D|------------------------------------------------------7---7-----5------|
A|--------2--4--9--9--9--9--9--9--9--9--9--9--9--9--9---9---9-----7------|
D|--2--4--------7--7--7--7--7--7--7--7--7--7--7--7--7---7---7------------|

Lay down……………………..

To play the this songs, including Only You by Mac DeMarco by ukulele, the most important basic ukulele chords to learn are C chord, D chord, G chord, and Em chord.
These set you up to play a ton of songs, and each of them is easy to master.

Leave a Reply

Your email address will not be published.