Sudoku Game

If you are searching for Get Away ukulele chords, you’ve come to the right site.
You can play versatile instrument Get Away using ukulele or guitar.
This song by Katchafire can also be played by that instruments.
=

Get Away chords has rhythm and included in Revival (2003) album.
You can also find other musical style, including jazz ukulele chords, country music ukulele chords, pop ukulele chords, world music ukulele chords, and rock ukulele chords here.

Get Away by Katchafire Ukulele Chords


Chorus

I gotta get away sometimes(get away, get away)
I got to get away
I gotta slip away sometimes(get away, get away)
I got to slip away to my special place

Verse
I woke up yeah on a cloudy day
I’m feeling blase blase from last nights party
And in the back of my mind I got work today
I couldn’t find my shoes to lardy dardy

Bridge
Excuse me sir, me car broke down
Me Mrs left me with the baby now
And I can’t make that date today
It might have to be another day
I said I’m sorry
I said I’m sorry
Oh yeah

Chorus
I gotta get away sometimes(get away, get away)
I got to get away
I gotta slip away sometimes(get away, get away)
I got to slip away to my special place

Verse
I woke up yeah on a cloudy day
I’m feeling blase blase from last nights party
And in the back of my mind I got work today
I couldn’t find my shoes to lardy dardy

Bridge
Excuse me sir, me car broke down
Me Mrs left me with the baby now
And I can’t make that date today
It might have to be another day
I said I’m sorry
I said I’m sorry
Oh yeah

Chorus
I gotta get away sometimes(get away, get away)
I got to get away
I gotta slip away sometimes(get away, get away)
I got to slip away to my special place

Got to get away
Got to slip away
Got to get away
Got to slip away
Got to slip away to me own reality…

Chorus to fade

To play the most songs, including Get Away by Katchafire by ukulele, the most important basic ukulele chords to learn are C chord, D chord, G chord, and Em chord.
These set you up to play a a lot of songs, and each of them is easy to master.

If you are looking for Tell Me What to Swallow ukulele chords, you already visit to the best site.
You can play versatile instrument Tell Me What to Swallow using ukulele or guitar.
This song by Crystal Castles can also be played by that instruments.
=

Tell Me What to Swallow chords has rhythm and included in Crystal Castles (2008) album.
You can also get other musical genres, including jazz ukulele chords, country music ukulele chords, pop ukulele chords, world music ukulele chords, and rock ukulele chords here.

Tell Me What to Swallow by Crystal Castles Ukulele Chords


Here’s my first attempt. Any suggestions for change contact me at kylemg45@hotmail.com.

Intro:



Verse:

Through the wall he threw me
I know he’d never hurt me
Daddy watched me sleeping
Praying for you silently

Chorus:

Ooo… Ooo… Ooo... Ooo…
Ooo… Ooo...
Ooo… Ooo… Ooo... Ooo…
Ooo… Ooo...

Verse 2 (slight variation):

Daddy let me sleepwalk
Without him I am secure
The only girl he’d never hurt
The one who smells so pure

(Repeat chorus)

Ending:



Thanks for reading!

To play the most songs, including Tell Me What to Swallow by Crystal Castles by ukulele, the most crucial basic ukulele chords to learn are C chord, D chord, G chord, and Em chord.
These set you up to play a a lot of songs, and each of them is easy to learn.

If you are looking for Anh nợ tình em một dịu dàng ukulele chords, you have visit to the best place.
You can play versatile instrument Anh nợ tình em một dịu dàng using ukulele or guitar.
This song by Đặng Hiền can also be played by that instruments.
=

Anh nợ tình em một dịu dàng chords has rhythm and included in album.
You can also get another musical style, including jazz ukulele chords, country music ukulele chords, pop ukulele chords, world music ukulele chords, and rock ukulele chords here.

Anh nợ tình em một dịu dàng by Đặng Hiền Ukulele Chords


1. Anh nợ tình em một dịu dàng
Mây bay bên ngàn năm trắng xóa
Đêm đêm vẫn là đêm cô độc
Tình mình chợt như bóng mây trôi.
 
2. Em gọi tình ơi lời dịu dàng
Em nghe tim chừng như vỡ nát
Em ơi có buồn anh không hở
Buồn ơi từng âm tiếng anh ơi.
 
ĐK:
Đời sống đã cho nhau
Tình yêu đã cho nhau
Xa nhau tình bỗng lạ
Bên cuộc đời dối dang
 
3. Anh nợ tình em một dịu dàng
Trăm năm đi về như bóng nắng
Yêu nhau có cùng chung hơi thở
Đừng phụ tình nhau đớn đau anh.

To play the most songs, including Anh nợ tình em một dịu dàng by Đặng Hiền by ukulele, the most important basic ukulele chords to learn are C chord, D chord, G chord, and Em chord.
These set you up to play a ton of songs, and each of them is easy to master.

If you are looking for Dying Victims ukulele chords, you’ve visit to the best place.
You can play versatile instrument Dying Victims using ukulele or guitar.
This song by Kreator can also be played by that instruments.
=

Dying Victims chords has rhythm and included in Endless Pain (1985) album.
You can also get another musical style, including jazz ukulele chords, country music ukulele chords, pop ukulele chords, world music ukulele chords, and rock ukulele chords here.

Dying Victims by Kreator Ukulele Chords


Song: Dying Victims
Album: Endless Pain
Year: 1985

Tabbed by Jori Merilainen, send any corrections, suggestions
or questions to: Thrasher_0682@yahoo.com

Standard tuning EADGBe

Here’s another one from Kreator’s Endless Pain, and it’s also
one of the best from the album. What more can I say?

1a) Intro: (w/clean tone)


e|---------------------| |------------------------|
B|---------------------| |------------------------|
G|--0---0-----------2--| |------0-----0--------2--|
D|----0----0------2----| |----2-----0--------2----|
A|-----------3--0------| |--3-----2--------0------|
E|---------------------| |--------------3---------|

|Intro rhytm: (w/dist.)


e|---------------------| |------------------------|
B|---------------------| |------------------------|
G|--------------2------| |--5-----4--------2------|
D|--------------2------| |--5-----4-----5--2------|
A|--------------0------| |--3-----2-----5--0------|
E|---------------------| |--------------3---------|

[1b)]


e|---------------------------------|
B|------------------------1--------|
G|------0-----0--------2----2------|
D|----2-----0--------2--------2----|
A|--3-----2--------0------------0--|
E|--------------3------------------|

2) Riff 1:


G|---------------------------------|
D|------------------------------6--|
A|------8/7-----7/6-----8/7-----6--|
E|--0-0-----0-0-----0-0-----0-0-8--|

. . . . . . . .

3) Verse riff: (Play this 3 times… 4th time play this)


G|------------------------------------| |------------------------|
D|------------------------------------| |------------------2--4--|
A|---------------------------4--5--4--| |------------------0--2--|
E|--000000000000000000000000-2--3--2--| |--000000000000000-------|

…………………… ……………

4) Pre-Chorus:


G|-------------------------------------------------------------------------|
D|--7-----------------5----------------------------------------------------|
A|--5-55555555555555553-33333333333333332-----------------------------2-2--|
E|--------------------------------------0-00000000000000000000000000000-0--|

……………. ……………. ……………………….. .

5) Chorus:


G|--------------------------------------------------------------------|
D|--4-------4-------4-------4-----------------------------------------|
A|--2-2222222-2222222-2222222-2222222-------2-------2-------2---------|
E|----------------------------------0-0000000-0000000-0000000-000000--|

…… …… …… …… …… ……. …… ……

6) Solo rhytm:


G|-----------------------------------------------------------|
D|--2------2------2------2------4------4------5------7-------|
A|--0--0-0-0--0-0-0--0-0-0--0-0-2--0-0-2--0-0-3--0-0-5--0-0--|
E|-----.-.----.-.----.-.----.-.----.-.----.-.----.-.----.-.--|

7a) Outro:


G|---------------------------------------------|
D|----------------10--9----------------12--11--|
A|--2------2-------8--7--5------5------10---9--|
E|--0--0-0-0-------------3--3-3-3--------------|

. . . .
[7b)]


G|-----------------------------------------------------------------|
D|--------------------------10--9--------------------------12--11--|
A|--2-------2-------2--------8--7--5-------5-------5-------10---9--|
E|--0-0-0-0-0-0-0-0-0-0-0-0--------3-3-3-3-3-3-3-3-3-3-3-3---------|

. . . . . . . . . . . . . . . . . .

End with E5 (022xxx)

To play the this songs, including Dying Victims by Kreator by ukulele, the most important basic ukulele chords to learn are C chord, D chord, G chord, and Em chord.
These set you up to play a many of songs, and each of them is easy to master.

If you are looking for It Almost All Went Wrong ukulele chords, you have visit to the right site.
You can play versatile instrument It Almost All Went Wrong using ukulele or guitar.
This song by face to face can also be played by that instruments.
=

It Almost All Went Wrong chords has rhythm and included in Protection (2016) album.
You can also get other musical genres, including jazz ukulele chords, country music ukulele chords, pop ukulele chords, world music ukulele chords, and rock ukulele chords here.

It Almost All Went Wrong by face to face Ukulele Chords


Intro: B E B E B E F# E x2

Verse 1:
This uphill battle
I’ve been fighting
my whole life Somehow
this melody cuts deeper
than their knives These
three chords can win
this [B/Eb]war And it’s not
even a fair fight
Forget about yourself
E(hold)
for just a while

Chorus 1:
I didn’t really feel
like singing this song
I’ve finally made it
back where you were
all along It almost
ended tragically
It almost all went
G#m F#(hold)
wrong I didn’t
really feel like
E(hold) B
singing this song

Psot Chorus:

Verse 2:
If I was afraid to
fail I wouldn’t even
try I won’t be written
off I won’t let them
decide For what it’s
worth This doesn’t
[B/Eb]work unless you’re
hanging on these
lines Forget about
yourself for
E(hold)
just a while

(Repeat Chorus 1)

Bridge:
Do you ever feel
Like we were meant
for something
better still?
Well maybe not
Forget about yourself
E(hold)
for just a while

Chorus 2:
I didn’t really feel
like singing this song
I’ve finally made it
back where you were
all along It almost
ended tragically
It almost all went
G#m F#(hold)
wrong I didn’t
really feel like
E(hold) B
singing this song
G#m(hold)
I didn’t really
feel like
F#(hold) B(hold)
singing this song

To play the most songs, including It Almost All Went Wrong by face to face by ukulele, the most crucial basic ukulele chords to learn are C chord, D chord, G chord, and Em chord.
These set you up to play a ton of songs, and each of them is easy to master.

If you are searching for When You Walk in the Room ukulele chords, you have visit to the right site.
You can play versatile instrument When You Walk in the Room using ukulele or guitar.
This song by can also be played by that instruments.
=

When You Walk in the Room chords has rhythm and included in Like a Hurricane (1998) album.
You can also get other musical style, including jazz ukulele chords, country music ukulele chords, pop ukulele chords, world music ukulele chords, and rock ukulele chords here.

When You Walk in the Room by Ukulele Chords


#
#
#
#Chris Hillman When You Walk In The Room written by Jackie DeShannon
#
#Chris Hillman vocals/acoustic guitar
#Jim Monahan 12 string & 6 string
#Jerry Scheff bass
#Steve Duncan drums
#J.D. Maness steel guitar
#Jimmy Greenspoon keyboards
#Ritchie Podolor tambourine
#Carl Allen harmony
#
#


-----------------------2-------0---------------

#


-----------2-------0-------2-------2---0---2---

#


-------2-------2-------------------------------

#


---2-------------------------------------------

#


-----------------------------------------------

#


-----------------------------------------------

I can feel a new expression on my face
I can feel a glowing sensation taking place
I can hear the guitars playing lovely tun[A/G#]es
Every time that you walk in the room
I close my eyes for a second and pretend it’s me you want
Meanwhile I try to act so nonchalant
I see a summer’s night with a magic [A/G#]moon
Every time that you walk in the room
Maybe it’s a dream come true
Walking right alongside of you
Wish I could tell you how much I care
But I only have the nerve to stare
I can feel-a something pounding in my brain
Just anytime that someone speaks your name
Trumpets sound and I hear thunder boom[A/G#]
Every time that you walk in the room
Every time that you walk in the room
From Chris Hillman “Like A Hurricane”
Sugar Hill Records 1998
EMI United Partnership(BMI)

To play the this songs, including When You Walk in the Room by by ukulele, the most crucial basic ukulele chords to learn are C chord, D chord, G chord, and Em chord.
These set you up to play a a lot of songs, and each of them is easy to learn.

If you are searching for You and You Alone ukulele chords, you’ve visit to the best site.
You can play versatile instrument You and You Alone using ukulele or guitar.
This song by Vince Gill can also be played by that instruments.
=

You and You Alone chords has rhythm and included in High Lonesome Sound (1996) album.
You can also find other musical style, including jazz ukulele chords, country music ukulele chords, pop ukulele chords, world music ukulele chords, and rock ukulele chords here.

You and You Alone by Vince Gill Ukulele Chords


You And You Alone Vince Gill

If we have to wait forever that’s alright
If you say let’s run away, we’d leave tonight
I’d do anything you ever asked me to
Girl, the reason my heart’s beating is for you You alone
There’s a price to pay for every choice you make
We’ll have our day no matter what it takes
I’ll be there for you whatever we go through
Girl, the reason life’s worth living is for you you alone

CHORUS:
Oh you and you alone Are with me from now on
Even if I never see your face again
The love that you have shown is unlike anything I’ve known
We both know it’s just a matter of will

Wish that we could just turn back the hands of time
And find a way to have your world fit into mine
I’ll keep dreaming that somday it’ll all comes true
Girl, the reason my heart’s breaking is for you you alone

chorus, instrumental to end.

To play the this songs, including You and You Alone by Vince Gill by ukulele, the most important basic ukulele chords to learn are C chord, D chord, G chord, and Em chord.
These set you up to play a a lot of songs, and each of them is easy to learn.

If you are searching for Where Do I Go to Start All Over ukulele chords, you already come to the best site.
You can play versatile instrument Where Do I Go to Start All Over using ukulele or guitar.
This song by Wade Hayes can also be played by that instruments.
=

Where Do I Go to Start All Over chords has rhythm and included in On a Good Night (1996) album.
You can also find another musical style, including jazz ukulele chords, country music ukulele chords, pop ukulele chords, world music ukulele chords, and rock ukulele chords here.

Where Do I Go to Start All Over by Wade Hayes Ukulele Chords


(Verse 1)
I drove around last night, and tried with all my might
To leave the past behind, cause you stayed on my mind
So I stopped for a drink, I never stopped to think
That it wouldn’t work, It just made it worse
So I came on back home, I hadn’t changed a thing
And sat here all alone, missing you and wondering

(Chorus)
Where do I go to start all over
When theres no place to hide
From your memory
Where do I go to start all over
When in your arms is where I won’t be

(Verse 2)
I’d take some things and leave, If the change of scenery
Would do me any good, Like I know it should
I’d still be missing you, What goods a different view
To a broken heart, We’d still be apart
Someday I’ll find the answer, To this mystery
But tonight the same old question, Just keeps on haunting me

(Chorus)
Where do I go to start all over
When theres no place to hide
From your memory
Where do I go to start all over
When in your arms is where I won’t be

(Outro)
Where do I go to start all over
When in your arms is where I won’t be

To play the most songs, including Where Do I Go to Start All Over by Wade Hayes by ukulele, the most crucial basic ukulele chords to learn are C chord, D chord, G chord, and Em chord.
These set you up to play a ton of songs, and each of them is easy to learn.

If you are searching for Sắc Xuân Huy Hoàng ukulele chords, you already visit to the right place.
You can play versatile instrument Sắc Xuân Huy Hoàng using ukulele or guitar.
This song by Bảo Lê can also be played by that instruments.
=

Sắc Xuân Huy Hoàng chords has Ballade rhythm and included in album.
You can also find another musical style, including jazz ukulele chords, country music ukulele chords, pop ukulele chords, world music ukulele chords, and rock ukulele chords here.

Sắc Xuân Huy Hoàng by Bảo Lê Ukulele Chords


Ta nghe mùa xuân đón mời
Xôn xao ngàn tiếng cười vui
Nôn nao ngàn câu chúc mừng
Muôn hoa khoe sắc thật tươi.
 
Em thơ cười tươi hớn hở
Trông mong quà tết thật to
Bên gia đình vang tiếng cười
Niềm vui đoàn viên ngập tràn reo khắp nơi.
 
Xuân đến bên đời ta mang niềm vui phơi phới
Ngất ngây hồn hoa, ngập tràn hạnh phúc chan hòa
Chúc tết mẹ cha, luôn thịnh vượng an khang
Chúc anh chị em năm nay làm ăn phát tài.
 
Lắng nghe tình xuân, ru hồn ta khao khát
Tết thêm lộc may nụ cười rạng rỡ huy hoàng
Chúa xuân về đây se hồng duyên lứa đôi
Có em đời ta tuyệt vời hạnh phúc xuân ngời.

To play the this songs, including Sắc Xuân Huy Hoàng by Bảo Lê by ukulele, the most crucial basic ukulele chords to learn are C chord, D chord, G chord, and Em chord.
These set you up to play a a lot of songs, and each of them is easy to master.

If you are searching for Marathons ukulele chords, you have visit to the best place.
You can play versatile instrument Marathons using ukulele or guitar.
This song by Falling Up can also be played by that instruments.
=

Marathons chords has rhythm and included in Dawn Escapes (2005) album.
You can also get another musical genres, including jazz ukulele chords, country music ukulele chords, pop ukulele chords, world music ukulele chords, and rock ukulele chords here.

Marathons by Falling Up Ukulele Chords


Drop D Tuning D-A-D-G-B-E

hhammer on
ppull off
sslide
bbend
rbreturn bend

Intro
Keyboard
Then


G[--7/7-------5/5----------]
D[-0---7/7-0/0---3/3-7h8/8-]
A[-0-------0/0-------7h8/8-]x4
D[-0-------0/0-------7h8/8-]

Verse 1
Gtr. 1


G[-7/7----5/5-----7/7--7/7----5/5------------]
D[----7/7----3/3----------7/7----3/3---------]
A[-----------------------------------5/5/0/0-]
G[-7/7----5/5-----7/7--7/7----5/5------------]
D[----7/7----3/3----------7/7----3/3--2h3p2--]
A[-----------------------------------------3-]
G[-7/7----5/5-----7/7--7/7----5/5------------]
D[----7/7----3/3----------7/7----3/3---------]
A[-----------------------------------5/5/0/0-]
G[-7/7----5/5-----7/7--7/7----5/5------------]
D[----7/7----3/3----------7/7----3/3--2h3p2--]
A[-----------------------------------------3-]

Pre-Chorus
Gtr. 2


G[-7/7-5/7--10/10-7/10--7/7-5/7--10/10/10/10------------]
D[-7/7-5/7--10/10-7/10--7/7-5/7--10/10/10/10-8s10-10-10-]
A[-5/5-3/5---8/-8-5/-8--5/5-3/5---8/-8/-8/-8-8s10-10-10-]
D[-5/5-3/5---8/-8-5/-8--5/5-3/5---8/-8/-8/-8-8s10-10-10-]

Chorus
Both Guitars


G[-------9p7------5x5--------9p7------5x5-]
D[-0-8h10---0/0/0-5x5--0-8h10---0/0/0-5x5-]
A[-0--------0/0/0-3x3--0--------0/0/0-3x3-]
D[-0--------0/0/0------0--------0/0/0-----]

G[-7/7/7/7/7/7/7/7/10/10/10/10/10/10/10/10-]
D[-7/7/7/7/7/7/7/7/10/10/10/10/10/10/10/10-]


A[-5/5/5/5/5/5/5/5/-8/-8/-8/-8/-8/-8/-8/-8-]
D[-5/5/5/5/5/5/5/5/-8/-8/-8/-8/-8/-8/-8/-8-]
G[-------9p7------5x5--------9p7------5x5-]
D[-0-8h10---0/0/0-5x5--0-8h10---0/0/0-5x5-]
A[-0--------0/0/0-3x3--0--------0/0/0-3x3-]
D[-0--------0/0/0------0--------0/0/0-----]

G[-7/7/7/7/7/7/7/7/10/10/10/10/10/10/10/10-]
D[-7/7/7/7/7/7/7/7/10/10/10/10/10/10/10/10-]


A[-5/5/5/5/5/5/5/5/-8/-8/-8/-8/-8/-8/-8/-8-]
D[-5/5/5/5/5/5/5/5/-8/-8/-8/-8/-8/-8/-8/-8-]

Verse 2
Gtr. 1


G[-7/7----5/5-----7/7--7/7----5/5------------]
D[----7/7----3/3----------7/7----3/3---------]
A[-----------------------------------5/5/0/0-]
G[-7/7----5/5----------7/7----5/5------------]
D[----7/7----3/3---5/5----7/7----3/3--2h3p2--]
A[-----------------------------------------3-]

Then
Gtr. 1


G[-7/7----5/5-----7/7--7/7----5/5------------]
D[----7/7----3/3----------7/7----3/3---------]
A[-----------------------------------5/5/0/0-]

Gtr. 2


B[---------------------5--5brb---------------]
G[----------------------5-----5-7/7----------]

Then
Gtr. 1


G[-7/7----5/5----------7/7----5/5------------]
D[----7/7----3/3---5/5----7/7----3/3--2h3p2--]
A[-----------------------------------------3-]

Then
Gtr. 1


G[-7/7----5/5-----7/7--7/7----5/5------------]
D[----7/7----3/3----------7/7----3/3---------]
A[-----------------------------------5/5/0/0-]

Gtr. 2


B[---------------------5--5brb---------------]
G[----------------------5-----5-7/7----------]

Then
Gtr. 1


G[-7/7----5/5----------7/7----5/5------------]
D[----7/7----3/3---5/5----7/7----3/3--2h3p2--]
A[-----------------------------------------3-]

Pre-Chorus

Chorus

Bridge


D[-12-0-5-7-12-0-10-12--12/12/10/10-12/12/12s10-10/10-]
A[--7-0-3-5--7-0--8-10---8/-8/-7/-7--8/-8/-8s-7--7/-7-]
D[--7-0-3-5--7-0--8-10---8/-8/-7/-7--8/-8/-8s-7--7/-7-]
D[12-0-5-7-12-0-10-12-]
A[-7-0-3-5--7-0--8-10-]
D[-7-0-3-5--7-0--8-10-]
D[-12/12/10/10-12/12/12/12-10/10-12/12/10/10-12/12/12/12s10-10/10-]
A[--8/-8/-7/-7--8/-8/-8/-8--7/-7--8/-8/-7/-7--8/-8/-8/-8s-7--7/-7-]
D[--8/-8/-7/-7--8/-8/-8/-8--7/-7--8/-8/-7/-7--8/-8/-8/-8s-7--7/-7-]

Then


G[-----------------------5------------------------]
D[-0----3----8----5--3/2-5--0----3----8-----5-5-5-]
A[-0----3----8----5--3/2-3--0----3----8-----5-5-5-]
D[-0----3----8----5--3/2----0----3----8-----5-5-5-]

Chorus

Ending


G[--7/7-------5/5----------]
D[-0---7/7-0/0---3/3-7h8/8-]
A[-0-------0/0-------7h8/8-]x4
D[-0-------0/0-------7h8/8-]

Then
Gtr. 1


G[--7/7-------5/5----------]
D[-0---7/7-0/0---3/3-7h8/8-]
A[-0-------0/0-------7h8/8-]
D[-0-------0/0-------7h8/8-]

Gtr. 2


B[-----------------5--5brb---------------]
G[------------------5-----5-7/7----------]

Then
Gtr. 1


G[--7/7-------5/5----------]
D[-0---7/7-0/0---3/3-7h8/8-]
A[-0-------0/0-------7h8/8-]
D[-0-------0/0-------7h8/8-]

Then
Gtr. 1


G[--7/7-------5/5----------]
D[-0---7/7-0/0---3/3-7h8/8-]
A[-0-------0/0-------7h8/8-]
D[-0-------0/0-------7h8/8-]

Gtr. 2


B[-----------------5--5brb---------------]
G[------------------5-----5-7/7----------]

Then
Gtr. 1


G[--7/7-------5/5----------]
D[-0---7/7-0/0---3/3-8/8/8-]
A[-0-------0/0-------8/8/8-]
D[-0-------0/0-------8/8/8-]

Tabbed by Adam K

To play the this songs, including Marathons by Falling Up by ukulele, the most crucial basic ukulele chords to learn are C chord, D chord, G chord, and Em chord.
These set you up to play a ton of songs, and each of them is easy to master.