Sudoku Game

If you are looking for Mùa thu cho em ukulele chords, you already visit to the best site.
You can play versatile instrument Mùa thu cho em using ukulele or guitar.
This song by can also be played by that instruments.
=

Mùa thu cho em chords has Slow Rock rhythm and included in album.
You can also find other musical genres, including jazz ukulele chords, country music ukulele chords, pop ukulele chords, world music ukulele chords, and rock ukulele chords here.

Mùa thu cho em by Ukulele Chords


1. Em có nghe mùa thu mưa giăng lá đổ
Em có nghe nai vàng hát khúc yêu đương
Và em có nghe khi mùa thu tới
Mang ái ân mang tình yêu tới
Em có nghe, nghe hồn thu nói mình yêu nhau nhé

2. Em có hay mùa thu mưa giăng gió nhẹ
Em có hay thu về hết dấu cô liêu
Và em có hay khi mùa thu tới
Bao trái tim vương màu xanh mới
hay, hay mùa thu tới hồn anh ngấy ngây

ĐK: Nắng úa, dệt mi em và mây xanh thay tóc rối
Nhạt đôi môi, môi em thơm nồng
Tình yêu vương vương má hồng
Sẽ hát bài cho em, và ru em yên giấc tối
Ngày mai khi mưa ngang lưng đồi
Chờ em anh nghe mùa thu trôi

3.Em có mơ mùa thu cho ai nức nở
Em có mơ, mơ mùa mắt ướt hoen mi
Và em có mơ khi mùa thu tới
Hai chúng ta sẽ cùng chung lối
Em với anh mơ mùa thu ấy tình ta ngát hương

To play the most songs, including Mùa thu cho em by by ukulele, the most crucial basic ukulele chords to learn are C chord, D chord, G chord, and Em chord.
These set you up to play a many of songs, and each of them is easy to master.

If you are looking for Jezebel ukulele chords, you’ve come to the right place.
You can play versatile instrument Jezebel using ukulele or guitar.
This song by Acid Bath can also be played by that instruments.
=

Jezebel chords has rhythm and included in album.
You can also find another musical genres, including jazz ukulele chords, country music ukulele chords, pop ukulele chords, world music ukulele chords, and rock ukulele chords here.

Jezebel by Acid Bath Ukulele Chords


Intro –


-------
c :----------------------------|-------------------------|-------------------------|
G :----------------------------|-------------------------|-------------------------|
D#:----------------------------|-------------------------|-------------------------|
A#:----------------------------|-------------------------|-------------------------|
F :----------------------------|-------------------------|-------------------------|
C :----3-3-3-2-2-2-6-6-6-2-2-2-|-3-3-3-2-2-2-0-0-0-2-2-2-|-3-3-3-2-2-2-6-6-6-2-2-2-|

|_3_| |_3_| |_3_| |_3_| |_3_| |_3_| |_3_| |_3_| |_3_| |_3_| |_3_| |_3_|
pm……………………………………………………………….


c :----------------------|---------------------------------|-------------------------|
G :----------------------|---------------------------------|-------------------------|
D#:----------------------|--"If I took this cigarette and--|-------------------------|
A#:----------------2--2--|---put it out on you..."---------|-------------------------|
F :----------------2--2--|---------------------------------|-------------------------|
C :----3-3-3-2-2-2-0--0--|---------------------------------|-3-3-3-2-2-2-6-6-6-2-2-2-|

|_3_| |_3_| q q |_3_| |_3_| |_3_| |_3_|
pm……… pm…………………


c :----------------------------|-------------------------|---------------------|
G :----------------------------|-------------------------|---------------------|
D#:----------------------------|-------------------------|---------------------|
A#:----------------------------|-------------------------|---------------------|
F :----------------------------|-------------------------|-------------2-2-2-2-|
C :----3-3-3-2-2-2-0-0-0-2-2-2-|-3-3-3-2-2-2-6-6-6-2-2-2-|-3-3-3-2-2-2-0-0-0-0-|

|_3_| |_3_| |_3_| |_3_| |_3_| |_3_| |_3_| |_3_| |_3_| |_3_| e e e e
pm……………………………………………………………


c :------------------------|
G :------------------------|
D#:---------"...would you--|
A#:----2-----love me?"-----|
F :----2-------------------|
C :----0-------------------|

e

Verse 1 –


---------

4x 4x


c :-------------------|-------------------|------------------|-------------------|
G :-o-----------------|-----------------o-|-o----------------|-----------------o-|
D#:-------------------|-------------------|------------------|-------------------|
A#:----8--------------|-------------------|---8--------------|-------------------|
F :-o--8--5-5-4-4-5-5-|-7-7-5-5-4-4-5-5-o-|-o-8--5-5-4-4-5-5-|-2-2-5-5-4-4-5-5-o-|
C :----6--3-3-2-2-3-3-|-0-0-3-3-2-2-3-3---|---6--3-3-2-2-3-3-|-0-0-3-3-2-2-3-3---|

q e e e e e e e e e e e e e e q e e e e e e e e e e e e e e
pm………………………

2x


c :-------------------|-------------------|
G :-o-----------------|-----------------o-|
D#:-------------------|-------------------|
A#:----8--------------|-------------------|
F :-o--8--5-5-4-4-5-5-|-7-7-5-5-4-4-5-5-o-|
C :----6--3-3-2-2-3-3-|-0-0-3-3-2-2-3-3---|

q e e e e e e e e e e e e e e
pm………………………

Pre-Chorus 1 –


--------------
c :----------------------------|-------------------------|---------------------------|
G :----------------------------|-------------------------|---------------------------|
D#:----------------------------|-------------------------|---------------------------|
A#:----------3-3-3-4-4-4-------|-4-4-4-5-5-5-------3-3-3-|-4-4-4-------2-2-2-3-3-3-3-|
F :----2-2-2-------------3-3-3-|-------------2-2-2-------|-------1-1-1---------------|
C :----------------------------|-------------------------|---------------------------|

|_3_| |_3_| |_3_| |_3_| |_3_| |_3_| |_3_| |_3_| |_3_| |_3_| |_3_| s s s s
pm…………………………………………………………………


c :-------------------|-------------------|--------------|---------|
G :-------------------|-------------------|--------------|---------|
D#:----3--------------|-------------------|--------------|---------|
A#:----3--------------|-------------------|-8--%---------|----%----|
F :----1--5-5-4-4-5-5-|-------5-5-4-4-5-5-|-8------------|---------|
C :-------3-3-2-2-3-3-|-0-0-0-3-3-2-2-3-3-|-6------------|---------|

q e e e e e e |_3_| e e e e e e q h. w
pm…

Verse 2 –


---------

4x


c :-------------------|-------------------|------------------------------|
G :-o-----------------|-----------------o-|-o----------------------------|
D#:-------------------|-------------------|------------------------------|
A#:----8--------------|-------------------|---8--------------------------|
F :-o--8--5-5-4-4-5-5-|-2-2-5-5-4-4-5-5-o-|-o-8--------------------------|
C :----6--3-3-2-2-3-3-|-0-0-3-3-2-2-3-3---|---6--3-3-3-3-2-2-2-2-3-3-3-3-|

q e e e e e e e e e e e e e e q s s s s s s s s s s s s
pm…………………


c :--------------------------------------|---------------|---------------|
G :------------------------------------o-|-o-------------|-------------o-|
D#:--------------------------------------|---------------|---------------|
A#:--------------------------------------|---8--5--4--5--|-2--5--4--5----|
F :------------------------------------o-|-o-8--5--4--5--|-2--5--4--5--o-|
C :----0-0-0-0-3-3-3-3-2-2-2-2-3-3-3-3---|---6--3--2--3--|-0--3--2--3----|

s s s s s s s s s s s s s s s s q q q q q q q q
pm………………………..

Pre-Chorus 2 –


--------------
c :----------------------------|-------------------------|---------------------------|
G :-o--------------------------|-------------------------|-------------------------o-|
D#:----------------------------|-------------------------|---------------------------|
A#:----------3-3-3-4-4-4-------|-4-4-4-5-5-5-------3-3-3-|-4-4-4-------2-2-2-3-3-3---|
F :-o--2-2-2-------------3-3-3-|-------------2-2-2-------|-------1-1-1-------------o-|
C :----------------------------|-------------------------|---------------------------|

|_3_| |_3_| |_3_| |_3_| |_3_| |_3_| |_3_| |_3_| |_3_| |_3_| |_3_| |_3_|
pm……………………………………………………………….

(3:8)


c :----------------|---------------------------|-------------------------|
G :----------------|-o-------------------------|-------------------------|
D#:----------5-----|---------------------------|-------------------------|
A#:------3-----4---|---------3-3-3-4-4-4-------|-4-4-4-5-5-5-------3-3-3-|
F :----2---2-----3-|-o-2-2-2-------------3-3-3-|-------------2-2-2-------|
C :----------------|---------------------------|-------------------------|

e e e e e e |_3_| |_3_| |_3_| |_3_| |_3_| |_3_| |_3_| |_3_|
pm………………………………………..

(3:8)


c :------------------------------|-------------|
G :----------------------------o-|-------------|
D#:------------------------------|-------5-----|
A#:----4-4-4-------2-2-2-3-3-3---|---3-----4---|
F :----------1-1-1-------------o-|-2---2-----3-|
C :------------------------------|-------------|

|_3_| |_3_| |_3_| |_3_| e e e e e e
pm…………………

x pause for bass interlude (“Broken glass and dirty needles…”)

Chorus 1 –


----------

4x


c :------------------------------------------------------|
G :-o--------------------------------------------------o-|
D#:------------------------------------------------------|
A#:------------------------------------------|
F :-o--------------------------------------o-|
C :----0-0-0-0-0-0-0-0-----------------------------------|

pm.............

Guitar 1 (perfect 4th harmony)…………….


c :------------------------|---------------------|---------------------|-----------------------|
G :-o----------------------|---------------------|---------------------|---------------------o-|
D#:------------------------|---------------------|---------------------|-----------------------|
A#:----9-10-9----9-10-9----|-9-10-9----9---------|-9-10-9----9-10-9----|-9-10-9----9-----------|
F :-o--7-8--7-10-7-8--7-10-|-7-8--7-10-7-10-9-10-|-7-8--7-10-7-8--7-10-|-7-8--7-10-7-10-9-10-o-|
C :-----------8---------8--|--------8----8--7-8--|--------8---------8--|--------8----8--7-8----|

| e e e e e e e e e e e e e e e e e e e e e e e e e e e e e e e e |

|Guitar 2 (perfect 4th harmony)……………. |


c :------------------------|---------------------|---------------------|-----------------------|
G :-o----------------------|---------------------|---------------------|---------------------o-|
D#:----2-3--2----2-3--2----|-2-3--2----2---------|---------------------|-----------------------|
A#:-----------3---------3--|--------3----3--2-3--|-2-3--2----2-3--2----|-2-3--2----2-----------|
F :-o----------------------|---------------------|--------3---------3--|--------3----3--2-3--o-|
C :------------------------|---------------------|---------------------|-----------------------|

e e e e e e e e e e e e e e e e e e e e e e e e e e e e e e e e

Bridge –


--------

Guitars 1 & 2 4x


c :------------------------------------|-----------------------------------|
G :-o----------------------------------|---------------------------------o-|
D#;------------------------------------|-----------------------------------|
A#:----2-2-3-3-2-2-----2-2-3-3-2-2-----|-2-2-3-3-2-2-----2-2---------------|
F :-o--------------3-3-------------3-3-|-------------3-3-----3-3-2-2-3-3-o-|
C :------------------------------------|-----------------------------------|

pm............................…................................

Chorus 2 –


----------

4x


c :------------------------------------------------------|
G :-o--------------------------------------------------o-|
D#:------------------------------------------------------|
A#:------------------------------------------|
F :-o--------------------------------------o-|
C :----0-0-0-0-0-0-0-0-----------------------------------|

pm.............

Guitar 1 (perfect 4th harmony w/ power chords)


c :------------------------|---------------------|---------------------|-----------------------|
G :-o----------------------|---------------------|---------------------|---------------------o-|
D#:------------------------|---------------------|---------------------|-----------------------|
A#:----9-10-9----9-10-9----|-9-10-9----9---------|-9-10-9----9-10-9----|-9-10-9----9-----------|
F :-o--7-8--7-10-7-8--7-10-|-7-8--7-10-7-10-9-10-|-7-8--7-10-7-8--7-10-|-7-8--7-10-7-10-9-10-o-|
C :-----------8---------8--|--------8----8--7-8--|--------8---------8--|--------8----8--7-8----|

| e e e e e e e e e e e e e e e e e e e e e e e e e e e e e e e e |

|Guitar 2 (perfect 4th harmony w/ power chords) |


c :------------------------|---------------------|---------------------|-----------------------|
G :-o----------------------|---------------------|---------------------|---------------------o-|
D#:----9-10-9----8-10-9----|-9-10-9----9---------|---------------------|-----------------------|
A#:----7-8--7-10-7-8--7-10-|-7-8--7-10-7-10-9-10-|-9-10-9----9-10-9----|-9-10-9----9-----------|
F :-o---------8---------8--|--------8----8--7-8--|-7-8--7-10-7-8--7-10-|-7-8--7-10-7-10-9-10-o-|
C :------------------------|---------------------|--------8---------8--|--------8----8--7-8----|

e e e e e e e e e e e e e e e e e e e e e e e e e e e e e e e e

Outro –


-------
c :-------------------|---------------|---------------|-----------------|-----------------|
G :-o-----------------|---------------|---------------|-----------------|-----------------|
D#:-------------------|---------------|---------------|-----------------|-----------------|
A#:-------------------|---------------|---------------|-----------------|-----------------|
F :-o--5-4-%------5-4-|-5-6-5-4-5-4-%-|-%-5-4-5-6-5-4-|-7-6-7-8-7-6-7-6-|-7-8-7-6-7-6-7-8-|
C :----3-2--------3-2-|-3-4-3-2-3-2---|---3-2-3-4-3-2-|-5-4-5-6-5-4-5-4-|-5-6-5-4-5-4-5-6-|

e e h e e e e e e e e q q e e e e e e e e e e e e e e e e e e e e e e
pm. pm…………… pm………


c :----------------------|
G :--------------------o-|
D#:--------8-----7-------|
A#:----------7-----6-----|
F :----7-6-----6-----5-o-|
C :----5-4---------------| (changes up from here...just make mess with the rhythm)

e e e e e e e e

To play the this songs, including Jezebel by Acid Bath by ukulele, the most crucial basic ukulele chords to learn are C chord, D chord, G chord, and Em chord.
These set you up to play a a lot of songs, and each of them is easy to master.

If you are looking for Disappearing World ukulele chords, you have come to the right site.
You can play versatile instrument Disappearing World using ukulele or guitar.
This song by Fair can also be played by that instruments.
=

Disappearing World chords has rhythm and included in Disappearing World (2010) album.
You can also get other musical genres, including jazz ukulele chords, country music ukulele chords, pop ukulele chords, world music ukulele chords, and rock ukulele chords here.

Disappearing World by Fair Ukulele Chords


A little says a lot when writing from across the world
Under the cover of the air
Open your letterbox each day to catch a glimpse of me
Someone who’s trying just to breathe

Don’t ask, my love, “Where is it that your peace comes from?”
I found it in a disappearing world
I found it in a disappearing world

I’m running out of time to make a sentimental plea
Pass off this trivial affair
That made me motion sick to be displaced in history
And separated by a stare

Don’t ask, my love, “Where is it that your peace comes from?”
I found it in a disappearing world
I found it in the beauty of a world
f# G f# G E
Whose intentions were not as clear as they could be
f# G f# G E
Whose reflection was not made to look like me


I’m running out of time to make a sentimental plea
Don’t ask, my love, “Where is it that your peace comes from?”
I found it in a disappearing world
I found it in the beauty of a world
I found it in a disappearing world

To play the most songs, including Disappearing World by Fair by ukulele, the most crucial basic ukulele chords to learn are C chord, D chord, G chord, and Em chord.
These set you up to play a a lot of songs, and each of them is easy to master.

If you are searching for American Love ukulele chords, you’ve come to the best place.
You can play versatile instrument American Love using ukulele or guitar.
This song by Smallpools can also be played by that instruments.
=

American Love chords has rhythm and included in LOVETAP! (2015) album.
You can also find another musical style, including jazz ukulele chords, country music ukulele chords, pop ukulele chords, world music ukulele chords, and rock ukulele chords here.

American Love by Smallpools Ukulele Chords


She doesn’t panic from the warning signs

She’s hiding under foreign cotton and sheets of ice

Until I come around and clear her mind

But I know who you are, so why don’t we start again

It was colder by the pond

So she wore a pair of my gloves

Then she flew me to Milan

She calls me her american love

American love

American love

American love

A bay-and-gable in a small lake town

She wants to buy it from her dad just to tear it down

Then tell her uncles they can have it now

But we’re still coming by, just for the fireworks

It was colder by the pond

So she wore a pair of my gloves

Then she flew me to Milan

She calls me her american love

American love

American love

American love



If I belonged to anyone

I’d choose a blonde and have a son

And dress him up in tennis shoes

And play along until he’s good

If I belonged to anyone

I’d choose a blonde and have a son

And teach him things to get him by

The city girls will never bite

If I belonged to anyone

I’d choose a blonde and have a son

And dress him up in tennis shoes

And play along until he’s good

Yeah

American love

American love

American love

Oh

American love

It’s the american love

American love

To play the most songs, including American Love by Smallpools by ukulele, the most important basic ukulele chords to learn are C chord, D chord, G chord, and Em chord.
These set you up to play a ton of songs, and each of them is easy to learn.

If you are searching for Est-ce que tu le sais ukulele chords, you already visit to the best place.
You can play versatile instrument Est-ce que tu le sais using ukulele or guitar.
This song by can also be played by that instruments.
=

Est-ce que tu le sais chords has rhythm and included in album.
You can also get other musical genres, including jazz ukulele chords, country music ukulele chords, pop ukulele chords, world music ukulele chords, and rock ukulele chords here.

Est-ce que tu le sais by Ukulele Chords


Vise un peu ça si c’est mignon!
Sais-tu où se trouve sa maison ?
Oh oh, Est-ce que tu le sais ?
Est-ce que tu le sais dis- moi uhm uhm ?

Crois-tu que j’peux l’aborder
Sans risquer de me faire incendier ?
Oh oh, Est-ce que tu le sais ?
Est-ce que tu le sais dis- moi ? oh [Dm ] oh

Pourrais-tu m’expliquer
Pourquoi j’ai reçu sa main sur le nez?
Oh oh, Est-ce que tu le sais ?
Est-ce que tu le sais dis- moi ?

Est-ce que tu le sais ? (Est-ce que tu le sais)
Est-ce que tu le sais ? (Est-ce que tu le sais)
Est-ce que tu le sais ? (Est-ce que tu le sais)
Est-ce que tu le sais dis- moi, Qui Qui?

Ta không ngưng đâu đời sống độc thân
Nhưng ta mong sao ta có được em oh oh
Em hãy đến cùng ta
Mình sẽ sống hạnh phúc, với nhau một nhà

To play the this songs, including Est-ce que tu le sais by by ukulele, the most important basic ukulele chords to learn are C chord, D chord, G chord, and Em chord.
These set you up to play a many of songs, and each of them is easy to master.

If you are looking for Tools of the Trade ukulele chords, you have come to the best place.
You can play versatile instrument Tools of the Trade using ukulele or guitar.
This song by Carcass can also be played by that instruments.
=

Tools of the Trade chords has rhythm and included in Other Songs album.
You can also get other musical genres, including jazz ukulele chords, country music ukulele chords, pop ukulele chords, world music ukulele chords, and rock ukulele chords here.

Tools of the Trade by Carcass Ukulele Chords


Solo to “Tools of the Trade”

Transcribed by: John McCarron (mkracken@swbell.net)

|————-19/21-19-17———————-19-21~———-|
|————————-19—-22-18-19-21-22——–22-18~~–|
|———-18—————-18——————————–|
|-16-18-20—————————————————–|
|————————————————————–|
|————————————————————–|

[)] [)] [)] [)] [)]

|————/———-/|/|/|/|-|—–21-18————-17-14——-
|———-15———14———|———–19—————-15—-
|—————18-17————|-/17———-18—————-14-
|-15-17-18———————–|—————–20-16————-
|——————————–|———————————–
|——————————–|———————————–
——–14———————-|———————————-
———–14——————-|———————————-
————–14—————-|———————————-
–16-12———-13————-|—————————-13—-
——————–14-11——-|———-13—-13-15-13-15—-15-
————————–12~~~-|-15-13-15—-15——————-

( Tab from: http://www.guitartabs.cc/tabs/c/carcass/tools_of_the_trade_tab.html )

——————————————-p–p–h—–|
——————————–13—-15-17-14-13-14~~-|
————–13—-13-15-13-15—-15——————|
–13-15-13-15—-15————————————|
——————————————————-|
——————————————————-|

>>>>>>>>>>>>>>>>>>>>>>>>>>>>>

———————————–|———————————
———————————–|———————————
———————————–|—————————–14–
——————–)))~a.h.~)))—|——————–15-16-18—–
–13—h–p–p—–/—————|———–14-16-17————–
—–16-17-16-14-15—————-|–13-15-17———————–

)~~~~~~

—————h–p————14——h–p———-/-|
——–15~~-14-15-14~~-/14-15—-15-14-15-14~~-13-13–|
–16-18————————————————|
——————————————————-|
——————————————————-|
——————————————————-|

To play the this songs, including Tools of the Trade by Carcass by ukulele, the most important basic ukulele chords to learn are C chord, D chord, G chord, and Em chord.
These set you up to play a many of songs, and each of them is easy to learn.

If you are searching for Sai nắng (Crush) ukulele chords, you have visit to the right site.
You can play versatile instrument Sai nắng (Crush) using ukulele or guitar.
This song by Dickson can also be played by that instruments.
=

Sai nắng (Crush) chords has rhythm and included in album.
You can also get other musical genres, including jazz ukulele chords, country music ukulele chords, pop ukulele chords, world music ukulele chords, and rock ukulele chords here.

Sai nắng (Crush) by Dickson Ukulele Chords


Em, màu trời nay rất xanh
Ánh mắt ấy trong lành ha
Để thiết tha, ngày sương gió

Mây nhẹ nhàng dừng ở đây
Cố giữ những tâm tình tôi
Lặng lẽ thương em ngại ngần.

T-ĐK:
Vì dần tôi thấy yêu em hơn khi em cười thật xinh xắn
Để đóa hoa trong tôi nở ngát hương nhớ thương
Đôi môi thơm ngần nồng nàn vấn vương ngập tràn.

ĐK:
Kìa em, bước đến bên tôi nhanh hơn được không bé, được không bé
Ngày gió mơ màng tưới mát giấc mơ trong lành
Này em, nhạc điệu du dương ấm áp trái tim chúng mình
Anh sẽ hát khúc ca tương tư thâu đêm ngồi nghe sóng vỗ câu
Yêu thương anh trao đến

RAP:
Em, có người hỏi tương tư là thế nào
Là khi nhìn ra cửa sổ chỉ thấy người mình thương
Trong cuộc sống bất kể dù ra sao
Thì khi yêu vào mình chẳng còn bình thường
Em thường bảo anh thông minh đầu óc
Là một quý ông biết chải chuốt đầu tóc
Những gì anh thiếu có phải là ở em
Đêm về nhớ nhung và thao thức mỗi đêm.

Anh có chân trái, anh có chân phải và cả chân thành
Bãi biển Cần Giờ, thành phố Cần Thơ vậy em có cần anh
Ở trên thương trường người ta hay thương lượng
Nhưng anh thì thương em cổ tích có yêu tinh
Truyện tranh có yêu quái còn anh thì yêu em
Người ta cần ấm trà để mùa đông ấm áp
Nhưng anh đã ấm lòng có em và yêu em.

To play the most songs, including Sai nắng (Crush) by Dickson by ukulele, the most crucial basic ukulele chords to learn are C chord, D chord, G chord, and Em chord.
These set you up to play a a lot of songs, and each of them is easy to learn.

If you are searching for Row Jimmy ukulele chords, you have visit to the right place.
You can play versatile instrument Row Jimmy using ukulele or guitar.
This song by Grateful Dead can also be played by that instruments.
=

Row Jimmy chords has rhythm and included in Wake of the Flood (1973) album.
You can also find other musical genres, including jazz ukulele chords, country music ukulele chords, pop ukulele chords, world music ukulele chords, and rock ukulele chords here.

Row Jimmy by Grateful Dead Ukulele Chords


#
#ROW JIMMY – GRATEFUL DEAD
#
#


E--11h12--11--10--------------------------------------------|

#


B-----------------b12--------10-----10----------------------|

#


G----------------------9h11------9--------------------------|

#


D-----------------------------------------------------------|

#


A-----------------------------------------------------------|

#


E-----------------------------------------------------------|

#
#
Julie catch a rabbit by his hair
Come back steppin’ like to walk on air
Get back home where you belong
And don’t you run off no more.
Riff
Don’t hang your head, let the two time roll
Grass shack nailed to a pine wood floor
Ask the time baby I don’t know
Come back later, gonna let it show.
I say row Jimmy row,
Gonna get there, I don’t know,
Seems a common way to go,
Get out and row, row, row, row, row.
(Follow the second verse form for verses 3 & 4)
Here’s a half dollar if you dare
Double twist when you hit the air,
Look at Julie down below,
The levee doin’ the do-pas-o.
Broken heart don’t feel so bad,
You ain’t got half of what you thought you had.
Rock your baby to and fro
Not too fast and not too slow.
That’s the way it’s been in town,
Ever since they tore the jukebox down.
Two bit piece don’t buy no more,
Not so much as it done before.

To play the most songs, including Row Jimmy by Grateful Dead by ukulele, the most crucial basic ukulele chords to learn are C chord, D chord, G chord, and Em chord.
These set you up to play a a lot of songs, and each of them is easy to master.

If you are searching for No Other Love ukulele chords, you have visit to the right site.
You can play versatile instrument No Other Love using ukulele or guitar.
This song by Common Kings can also be played by that instruments.
=

No Other Love chords has rhythm and included in Summer Anthems (2013) album.
You can also find another musical style, including jazz ukulele chords, country music ukulele chords, pop ukulele chords, world music ukulele chords, and rock ukulele chords here.

No Other Love by Common Kings Ukulele Chords

Cm G# D# Bb (chord spacing on lyrics is not exact, it keeps changing the spacing
when I try to submit)

Chorus:
I can take you to the kingdom my lady
Place you on the throne if you’re ready
Never gonna leave you I’m stayin girl
Next to you because
There is no other love,
No other love like this, no
No no no other love like yours
No no no other lovin lovin no

Verse 1:

She will always be the dream
Heaven decided was perfect for me
You can search the seven seas
Never find a woman as precious as she yeah
The kinda lovin so complete
The type of lovin make it so hard to breathe
She understands my every need
Only woman for me

Chorus:
I can take you to the kingdom my lady
Place you on the throne if you’re ready
Never gonna leave you I’m stayin girl
Next to you because
There is no other love,
No other love like this, no
No no no other love like yours
No no no other lovin lovin no

Verse 2:

You will always be my queen
Love deeper than any ocean and sea
Her touch make me weak at the knees
Special loving that only come from she yeah
She always fight for we
No matter how bad the situation may be
She is the right remedy
The only prescription I need

Chorus:
I can take you to the kingdom my lady
Place you on the throne if you’re ready
Never gonna leave you I’m stayin girl
Next to you because
You are my queen
No one but you, no

No no no other love like yours
No no no other lovin lovin no

Ai yai, ai yaiyaiyaiyaiyai (2x)

Bridge (?)

Chorus:
I can take you to the kingdom my lady
Place you on the throne if you’re ready
Never gonna leave you I’m stayin girl
Next to you because
There is no other love,
No other love like this, no
No no no other love like yours
No no no other lovin lovin no

To play the this songs, including No Other Love by Common Kings by ukulele, the most crucial basic ukulele chords to learn are C chord, D chord, G chord, and Em chord.
These set you up to play a many of songs, and each of them is easy to master.

If you are looking for Abolish Government / Superficial Love ukulele chords, you’ve visit to the best site.
You can play versatile instrument Abolish Government / Superficial Love using ukulele or guitar.
This song by Slayer can also be played by that instruments.
=

Abolish Government / Superficial Love chords has rhythm and included in Undisputed Attitude (1996) album.
You can also find other musical style, including jazz ukulele chords, country music ukulele chords, pop ukulele chords, world music ukulele chords, and rock ukulele chords here.

Abolish Government / Superficial Love by Slayer Ukulele Chords

Abolish Government/Superficial Love
Transcribed by Adrian Verdejo
email: abcynthium@hotmail.com
homepage: www.angelfire.com/mi/pileobonesmilitia
slide down
/slide up
Riff A:

—————————————————————————–
——————————–(x3)—————————————–
—————————————————————————–
–14–14–14–14–14–14–14—-14–14–14–15——————————-
–14–14–14–14–14–14–14—-12–12–12–13—15————————–
–12–12–12–12–12–12–12———————13————————–
—————————————————————————–
—————————————————————————–
—————————————————————————–
–14–14–14–14–14–14–14—-16–15—————————————
–14–14–14–14–14–14–14—-16–15—————————————
–12–12–12–12–12–12–12—-14–13—————————————

Repeat Riff A 2 more times an octave lower, and palm mute.
Riff B:

—————————————————————————
———(x4)————————————————————–
—————————————————————————
–9–9–10-10—9–9–9–9–7–7——————————————-
–9–9—8–8—7–7–7–7–5–7——————————————-
–7–7————————-5——————————————-

Riff C:

—————————————–
—————(x4)———————-
—————————————–
–9–9-10-10—10-10-10–11-11-11-11—–
–7–7–8–8—10-10-10–11-11-11-11—–
—————-8–8–8—9–9–9–9—–

(Riff B)
Riff D:

——————————————
——————————————
——————————————
–9–10—7–7–7–7–7–7–7–7–7——-
–9—8—7–7–7–7–7–7–7–7–7——-
–7——-5–5–5–5–5–5–5–5–5——–
——————————————
——————————————
——————————————
–9–10—7–7–7–7–7–7–7–7–7——-
–9—8—7–7–7–7–7–7–7–7–7——-
–7——-5–5–5–5–5–5–5–5–5——–
——————————————
——————————————
——————————————
–9–10—7–7–7–7–7–7–7–7–7——-
–9—8—7–7–7–7–7–7–7–7–7——-
–7——-5–5–5–5–5–5–5–5–5——–
—————————————————————————–
—————————————————————————–
—————————————————————————–
–9–10—7–7–7–7–7–7–7–7–7—–9————————————
–9—8—7–7–7–7–7–7–7–7–7—–9———————————–
–7——-5–5–5–5–5–5–5–5–5—–7———————————–

Riff B
Riff C

—————————————————————————|
—————————————————————————|
—————————————————————————|
–7————————————————————————|
–7—10——————————————————————|
–9—-8——————————————————————|

Abolish Government/Superficial Love
Tabbed by: Jason McNeil
Email: k.mcneil@ns.sympatico.ca
The Diabolic Music Page
www.geocities.com/Tokyo/Bridge/3975

Riff
A:
X3

g[————————————————————–]
d[————————————————————–]
a[—————————————12–12–12–13———]
e[—-12–12–12–12–12–12–12————————13——]

Riff A2

g[————————————————]
d[————————————————]
a[————————————————]
e[—12–12–12–12–12–12–12—–14–13——–]

For the first verse move up one octave higher.(-12 frets)
Riff B:

g[————————————-]
d[————————————-]
a[———8-8–7-7-7-7–5————-]
e[–7–7———————-5——–]

Riff C:

g[—————————-]
d[—————————-]
a[–7-7-8-8——————-]
e[————-8-8-8-9-9-9-9–]

Back To Riff B
Riff D:

g[————————–]
d[————————–]
a[—–8——————–]
e[–7—–5-5-5-5-5-5-5-5—]

To play the most songs, including Abolish Government / Superficial Love by Slayer by ukulele, the most crucial basic ukulele chords to learn are C chord, D chord, G chord, and Em chord.
These set you up to play a many of songs, and each of them is easy to learn.