Sudoku Game

If you are looking for De Beatles en de buren ukulele chords, you already visit to the right site.
You can play versatile instrument De Beatles en de buren using ukulele or guitar.
This song by Acda en De Munnik can also be played by that instruments.
=

De Beatles en de buren chords has rhythm and included in Hier zijn (2000) album.
You can also get other musical style, including jazz ukulele chords, country music ukulele chords, pop ukulele chords, world music ukulele chords, and rock ukulele chords here.

De Beatles en de buren by Acda en De Munnik Ukulele Chords


Date: Thu, 18.11.2003
Tabbed by Peter Tuyp(peter.tuyp@wxs.nl)

Subject:
Acda en de Munnik – De Beatles en de buren

Intro


|-----3-----2h3------3-----2h3------3-----2h3-----|
|-3--------------3--------------3-----------------|
|-0-0-----2------0-0-----2------0-0-----2---------|
|-------0--------------0--------------0-----------|
|-------------------------------------------------|
|-3--------------3--------------3--------------3--|

verse1:


|-----3-----2h3------3-----2h3------3-----2h3--------3-----2h3-|
|-3--------------3--------------3------------------3-----3-----|
|-0-0-----2------0-0-----2------0-0-----2--------0-------------|
|-------0--------------0--------------0------------------------|
|--------------------------------------------------------------|
|-3--------------3--------------3--------------3-------2-------|

He hallo, kijk me eens het gras zien groeien


|-----3-----2h3------3-0---0-----------0---------0--------|
|-3--------------3-------3---------3-----1---1h3---3---3--|
|-0-0-----2------0-0-------------0---0-----2-----------0--|
|-------0----------------------2--------------------------|
|----------------------------3---------------3-------3----|
|-0--------------0----------------------------------------|

En iedereen maar denken da’k niks doe


|---------2---3-----2-------0h2-----------2-------------------------|
|---------------------3---------3-------0---0-------0-------0-------|
|-------2---2-----0-----2---------2---2-------2-------0-------------|
|-0---2---------2---------0---------1-------------2-------------0---|
|---0-------------------------------------------2-------2/7---7-----|
|-------------------------------------------------------------------|

Maar niets minder waar, al ben ik dan niet klaar


|-------0-----------0--------2h3-----3-----2h3--3--|
|-1-----1-1-----1h3---1------3-----3-------3----3--|
|---2-----2---2------------2-------0-----2------0--|
|-----3-----3------------0-------------0--------0--|
|-----------------------------------------------0--|
|--------------------------------3--------------3--|

Ik ben de wedstrijd met de beatles en de buren moe

Verse 2:


|-----3-----2h3------3-----2h3------3-----2h3--------3-----2h3-|
|-3--------------3--------------3------------------3-----3-----|
|-0-0-----2------0-0-----2------0-0-----2--------0-------------|
|-------0--------------0--------------0------------------------|
|--------------------------------------------------------------|
|-3--------------3--------------3--------------3-------2-------|

He hallo, kijk me eens de wolken breken


|-----3-----2h3------3-0---0-----------0---------0--------|
|-3--------------3-------3---------3-----1---1h3---3---3--|
|-0-0-----2------0-0-------------0---0-----2-----------0--|
|-------0----------------------2--------------------------|
|----------------------------3---------------3-------3----|
|-0--------------0----------------------------------------|

Liggend op mijn rug hier in het gras


|---------2---3-----2-------0h2-----------2-------------------------|
|---------------------3---------3-------0---0-------0-------0-------|
|-------2---2-----0-----2---------2---2-------2-------0-------------|
|-0---2---------2---------0---------1-------------2-------------0---|
|---0-------------------------------------------2-------2/7---7-----|
|-------------------------------------------------------------------|

Verslagen maar preciezer, de gelukkige verliezer


|-------0-----------0--------2h3-----3-----2h3--3--|
|-1-----1-1-----1h3---1------3-----3-------3----3--|
|---2-----2---2------------2-------0-----2------0--|
|-----3-----3------------0-------------0--------0--|
|-----------------------------------------------0--|
|--------------------------------3--------------3--|

Van wat een wedstrijd met de beatles en de buren was

Chorus


|--------------0------------------------------0----|
|----------------0------------------------------0--|
|-----------0----0-------------------------0----0--|
|---------2------------------------------2---------|
|-------2------------------------------2-----------|
|-3-2-0------------------------------0-------------|

Alles moet (alles moet apart) aparter dan apart


|----------0---------------0----|
|-------0----0----------0----0--|
|-----0------0--------0------0--|
|---2---------------2-----------|
|-3---------------3-------------|
|-------------------------------|

Alles moet unieker dan uniek


|----------0---------------0----|
|------------0---------------0--|
|-------0----0----------0----0--|
|-----2---------------2---------|
|---2---------------2-----------|
|-0---------------0-------------|

Alles moet bijzonder en dat


|---------0----------------0----|
|-------0---0------------0---0--|
|-----0-----0----------2-----2--|
|---2----------------1----------|
|-3----------------2------------|
|-------------------------------|

Alles maakt dat alles weer moet


|----------0---------------0----|
|------------0---------------0--|
|-------0----0----------0----0--|
|-----2---------------2---------|
|---2---------------2-----------|
|-0---------------0-------------|

Alles moet unieker dan uniek


|----------0---------------0----|
|------------0-3--------0----0--|
|-----0--------0-------------0--|
|---2-----------------2---------|
|-3-----------------3-----------|
|-------------------------------|

Alles moet aparter dan apart


|----------0--------------0----|
|------------0--------------0--|
|-------0----0---------0----0--|
|-----2--------------2---------|
|---2--------------2-----------|
|-0--------------0-------------|

Alles moet bijzonderder dan


|----------0-----------------0---------------2---|
|-------0----0------------0----0----------0----0-|
|-----0------0----------2------2--------2------2-|
|---2-----------------1---------------1----------|
|-3-----------------2---------------2------------|
|------------------------------------------------|

Alles wat allang bijzonder was


|---------3----------2h3------------3-------2h3--3--|
|-------3----------3---3----------3--------------3--|
|-----0---------------------------0-------2------0--|
|---------------------------------------0--------0--|
|------------------------------------------------2--|
|-3------------2---------------3-----------------3--|

Wat de beatles en de buren was

Verse 3:


|-----3-----2h3------3-----2h3------3-----2h3--------3-----2h3-|
|-3--------------3--------------3------------------3-----3-----|
|-0-0-----2------0-0-----2------0-0-----2--------0-------------|
|-------0--------------0--------------0------------------------|
|--------------------------------------------------------------|
|-3--------------3--------------3--------------3-------2-------|

La lala la la la la la la lala


|-----3-----2h3------3-0---0-----------0---------0--------|
|-3--------------3-------3---------3-----1---1h3---3---3--|
|-0-0-----2------0-0-------------0---0-----2-----------0--|
|-------0----------------------2--------------------------|
|----------------------------3---------------3-------3----|
|-0--------------0----------------------------------------|

La lalala la lala la la la


|---------2---3-----2-------0h2-----------2h3p2-------------------------|
|---------------------3---------3-------0---0-----------0-------0-------|
|-------2---2-----0-----2---------2---2-----------2-------0-------------|
|-0---2---------2---------0---------1-----------------2-------------0---|
|---0-----------------------------------------------2-------2/7---7-----|
|-----------------------------------------------------------------------|

La la lala lala la la la la


|-------0-----------0--------2h3-----3-----0h2--3--|
|-1-----1-1-----1h3---1------3-----3-------3----3--|
|---2-----2---2------------2-------0-----2------0--|
|-----3-----3------------0-------------0--------0--|
|-----------------------------------------------0--|
|--------------------------------3--------------3--|

En voor de rest moet je bij de beatles en de buren zijn

To play the this songs, including De Beatles en de buren by Acda en De Munnik by ukulele, the most important basic ukulele chords to learn are C chord, D chord, G chord, and Em chord.
These set you up to play a a lot of songs, and each of them is easy to learn.

If you are searching for Nỗi lòng Thanh Trúc ukulele chords, you already visit to the best place.
You can play versatile instrument Nỗi lòng Thanh Trúc using ukulele or guitar.
This song by Trần Thiện Thanh can also be played by that instruments.
=

Nỗi lòng Thanh Trúc chords has rhythm and included in album.
You can also find another musical genres, including jazz ukulele chords, country music ukulele chords, pop ukulele chords, world music ukulele chords, and rock ukulele chords here.

Nỗi lòng Thanh Trúc by Trần Thiện Thanh Ukulele Chords

1. Chiều ngưng mây xám thương mến lên rồi
Thanh Trúc là tên của một người
Vẫn thường nhìn trời xanh bát ngát
Vẫn thường lên tiếng hát
Để bâng khuâng nhớ một bóng người.

2. Để nghe hơi giá lên đây từ chân trời
Không biết làm sao nhắn đôi lời
Anh lạc loài nhìn phương gió cuốn
Những lần mưa bão xuống
Có hỏi lòng anh nhớ em không.

ĐK: Sao anh chưa về chung vui
Sao anh quên thề anh ơi
Bao nhiêu yêu thương đó
Bao nhiêu ân tình đó
Sao chỉ buồn thêm thương nhớ.

3. Lắng nghe câu hát nhắn anh từ muôn trùng
Anh hỡi về đây xoá đêm buồn
Hãy tìm về đường xưa mở ngõ
Sum vầy quên tiếc nhớ
Để chiều mơ Thanh Trúc thôi mơ.

To play the most songs, including Nỗi lòng Thanh Trúc by Trần Thiện Thanh by ukulele, the most important basic ukulele chords to learn are C chord, D chord, G chord, and Em chord.
These set you up to play a many of songs, and each of them is easy to learn.

If you are looking for Cleopatra’s Cat ukulele chords, you have visit to the right site.
You can play versatile instrument Cleopatra’s Cat using ukulele or guitar.
This song by Spin Doctors can also be played by that instruments.
=

Cleopatra’s Cat chords has rhythm and included in Turn It Upside Down (1994) album.
You can also get another musical genres, including jazz ukulele chords, country music ukulele chords, pop ukulele chords, world music ukulele chords, and rock ukulele chords here.

Cleopatra’s Cat by Spin Doctors Ukulele Chords


Cleopatra’s cat by spin doctors..
Transcribed by Guitar world Magzine.
converted by kelly kristek.
____________________________________________________________________
Well here it is painstakingly long.. took me a an hour to do it..
but its all here solo and all… happy playing…also.. i have
the entire spin doctors book for the FIRST album if anyone
would like any of the songs.. i will try to post them
just mail me…
kkr@connected.com


--------------------------------------------------------------------
e:--0------------------------------------------------------------------------|
B:--0-------------------------------------------------------------------14---|
G:--0-------------------------------------------------------------------14---|
D:--2-----------------------------------------------------------12-14-X------|
A:--2------------------------------------------------------------------------|
E:--0------------------------------------------------------------------------|


e:--------------------------|
B:-12b----------------------|
G:-12b----------------------|
D:--------14-12-------12-14-|
A:--------------14-12-------|
E:--------------------------|
e:---------------------------------------------------------------------|
B:--------------------X--X--14----12b----------------------------12----|
G:--------------------X--X--14----12b----------------------------12----|
D:---------------------------------------14-12-------12-14-12-------14-|
A:---------------------------------------------14-12----------14-------|
E:-0-------------------------------------------------------------------|
e:--------------------|------------------------------------------|
B:--------------------|-----------14---12b-----------------------|
G:--------------------|-----------14---12b-----------------------|
D:--------------------|-12-13-14---------------14-12-------12-14-|
A:--------------------|------------------------------14-12-------|
E:--0-----------------|------------------------------------------|
e:-----------------|--------------------------------------|
B:-----------------|--------------------------------------|
G:-----------------|---------------------12b--------------|
D:-----------------|--------14--14-14----------14---------|
A:-----------------|------X-----------------------14-----|
E:---0-------------|--------------------------------------|
e:------------------------|--------------------------------------------|
B:--------------------14--|---12b--------------------------------------|
G:--------------------14--|---12b-----------------------------12-------|
D:------------------------|----------14-12-------12-14-12--------14----|
A:------------------------|----------------14-12----------14-----------|
E:------------------------|--------------------------------------------|
e:-------------|------------------------------------------------|
B:-------------|--------------14---12b--------------------------|
G:-------------|--------------14---12b--------------------------|
D:-------------|----12-13-14--------------14-12--------12-14----|
A:-------------|---------------------------------14-12----------|
E:-------------|------------------------------------------------|
e:----------------------------------|
B:-------------------------------14-|
G:-------------------------------14-|
D:-14-------------------------------|
A:----------------------------------|
E:----------------------------------|
e:------------------------------------------|--------------------------|
B:---12b-----------------------------12-----|--------------------------|
G:---12b-----------------------------12-----|--------------------------|
D:-----------14-12-------12-14-12-------14--|-----14-------------------|
A:-----------------14-12----------14--------|--------------------------|
E:------------------------------------------|--------------------------|
e:-------------------------------------------|------------------------|
B:----------14----12b------------------------|---------------------14-|
G:----------14----12b------------------------|---------------------14-|
D:-12-13-14--------------14-12-------12-14---|------------------------|
A:-----------------------------14-12---------|------------------------|
E:-------------------------------------------|------------------------|

CEN-(C. BRIDGE)


e:--------------------------------------------||--------|
B:---12b-----------------------------12-------||--------|
G:---12b-----------------------------12-------||--------|
D:----------14-12-------12-14-12--------14----||--------|
A:----------------14-14----------14-----------||--------|
E:--------------------------------------------||--------|
e:---------------------------------|---------------------------------------|
B:-------------0-------------------|---------------------------------------|
G:----11----11-----9---X--7-----7--|----7--7--7---X--X--6---6--4----4--2---|
D:----12----12-----11--X--9-----9--|----9--9--9---------7---7--5----5--4---|
A:---------------------------------|---------------------------------------|
E:---------------------------------|---------------------------------------|


e:----------------------------------------7---|---7-----------X--X---------|
B:--------------------------0--0-------X--10--|---10----------X--X--10/14--|
G:-----11-11---11--X--X--9--------7----X--7---|---7------------------------|
D:-----12-12---12--------11-------9-----------|----------------------------|
A:--------------------------------------------|----------------------------|
E:--------------------------------------------|----------------------------|
e:---------------------------------------|
B:------------------------0--------------|
G:-11----11--X--X------9----X--7------7--|
D:-12----12--------11--11------9------9--|
A:---------------------------------0-----|
E:---------------------------------------|
e:---------------------------------------|
B:---------------------------------------|
G:-----7--7--7--X--X--6--6---6--4---4--2-|
D:-----9--9--9--X--X--7--7---7--5---5--4-|
A:---------------------------------------|
E:---------------------------------------|
e:---------------------------------------------7---|
B:------------------0--X--X-----0--------------10--|
G:----11--11----11-----------9---------7----X--7---|
D:----12--12-----X-----------11--------9-----------|
A:-------------------------------------------------|
E:-------------------------------------------------|

(Gtr.2 plays Rhy. Fill 1)


e:----------------------------------------||
B:----------------------------------------||
G:-----------------------------------7/8--||
D:----------------------------7-----------||
A:----------------------------------------||
E:----------------------------------------||

(D Chrous)


e:-12---------------------------------------------------------------|
B:-12-----------------------------14----12b-------------------------|
G:---------------------------------14----12b-------------------------|
D:-----------------------12-13-14----------------14-14-------12-14---|
A:-----------------------------------------------------14-12---------|
E:-------------------------------------------------------------------|

Cleopatra’s favorite cat E


e:---------------------------|---------------------------------------------||
B:------------------------14-|----12b-------------------------------12-----||
G:------------------------14-|----12b-------------------------------12-----||
D:---------------------------|-------------14-12-------12-14-12--------14--||
A:---------------------------|-------------------14-12----------14---------||
E:---------------------------|---------------------------------------------||

2nd Verse


e:----------||-|------------------------|
B:----------||-|------------------------|
G:----------||-|------------------------|
D:----------||-|--14--------------------|
A:----------||-|------------------------|
E:----------||-|------------------------|

fascists don’t play prett


e:--------------------------------------------|--------------------------|
B:----------14----12b-------------------------|-----------------------14-|
G:----------14----12b-------------------------|-----------------------14-|
D:-12-13-14--------------14-12-------12-14----|--------------------------|
A:-----------------------------14-12----------|--------------------------|
E:--------------------------------------------|--------------------------|
|--------------------------

o |Rhy. Fill 1 |
w/Fill 1 first time only | |


e:-------------------------------------------|-|||T---10------------7/-----|
B:----12b-----------------------------12-----|-|||----10-------------------|
G:----12b-----------------------------12-----|-|||A------------------------|
D:-----------14-12-------12-14-12--------14--|-|||-------------------------|
A:-----------------14-12----------14---------|-|||B------------------------|
E:-------------------------------------------|-|||-------------7-----------|

|_________________________|


---------------------------------------------------

Rhy. Fill 2 |
|


e:T-------------------------------------------------|
B:-----------0--0--14----12b------------------------|
G:A----------------14----12b------------------------|
D:-------12----------------------14-12-------12-14--|
A:B------------------------------------14-12--------|
E:--------------------------------------------------|

__________________________________________________|


-----------------------------|

Fill 1 |
|


e:T----------------------------||------------------------------|
B:-------------------X--5------||------------------------------|
G:A------------------X--7------||------------------------------|
D:-----------------------------||---14--------------------2--4-|
A:B----------------------------||------------------------------|
E:-----------------------------||------------------------------|

_____________________________|


e:------------------------------------------------------|------------------|
B:----------------------------------------------------0-|------------------|
G:-----------------------------4----------------------4-|-----------4/--0--|
D:-5-----4----2----2---4---5-------4---5---2---4------4-|---------------0--|
A:----------------------------------------------------2-|------------------|
E:------------------------------------------------------|------------------|

Guitar Solo Rome


e:-----------------------------|----------------------------------------/9--|
B:-----------------------------|--------------------------------------------|
G:-----14b-----------14---12b--|-----------------------12-------------------|
D:--------------------0--------|----14---------12--14------14---14---------|
A:-----------------------------|-------------------------------------0------|
E:-----------------------------|--------------------------------------------|
e:----17b----17--17-----------------------0--|
B:----17b---------------------------------0--|
G:--------------------12b-----------------0--|
D:12-----------------------14----------------|
A:-----------------------------14---2/------|
E:-------------------------------------------|
e:--------------------------------------|
B:--------7--7--------------------------|
G:--------7--0--7--7--0--9------9--3---|
D:----0---7-----------------------------|
A:----0---------------------------------|
E:--------------------------------------|
e:-----------------------------------------|
B:-----------------------------------------|
G:--7-------7------------------------------|
D:------9--------9-7--5--------5--7--5--7-|
A:------------------------7--5-------------|
E:-----------------------------------------|
e:----------------------------------------|
B:----------------------------------------|
G:-4-----------------------4--4--------4--|
D:-4---5---4---5--4--5-2-/5--5--------5--|
A:------------------------/------3.8------|
E:----------------------------------------|

pitch c#


e:------------------------------------------------------7--------|
B:-----------------------------------------7---------------------|
G:-----X------5---5-------5--------7---7-------7------------11---|
D:--------7---7---7-------7--------9---9-------9------------12---|
A:--------------------0-------0----------------------------------|
E:---------------------------------------------------------------|

these bends are wammy bar


e:----------------------------|--------------------------|
B:----------------------------|--------------------------|
G:11--------------------------|12-----------------------|
D:12-----------------0--------|12-----------------------|
A:-------------------0--------|-0-----------------------|
E:----------------------------|--------------------------|

pitches: G and D

wbar wbar


e:---------------------------|---------------------------------|
B:---------------------------|---------------------------------|
G:----12----------------3---|3------/3-----------------10b---|
D:----12\---------///-------|------/-------------------------|
A:-----0\-------///--------|-----/--------------------------|
E:-------\-----///---------|----/---------------------------|

pichtes:D B D

My


e:------------------------------------------------|
B:------------------------------------------------|
G:--10b-------------------------------------0-----|
D:--10b------------------------------0------------|
A:------------------------------------------------|
E:------------------------------------------------|

4th string caught under finger

wbar


e:---------------------------|---------------------|
B:---12---------------------|12------------/12---|
G:---12---------------------|12------------/12---|
D:---12---------------------|12------------/12---|
A:---------------------------|---------------------|
E:---------------------------|---------------------|

Cleopatra’s favorite cat) (Meow)
w/Fill 1 (simile)


e:------------------------------------------|------------------------||
B:----------------------------------12b-----|-12---------------------||
G:-0------/0----------------0------14b-----|-14------------0--------||
D:-------/-------------X---0--------------|--------------------0---||
A:------/----------------------------------|------------------------||
E:-----/-----------14---------------------|------------------------||

3rd Verse ‘Cuase the


e:----12----------------------|-------------------------------------------|
B:----12----------------------|----------14-----Xb------------------------|
G:-----------------------------|----------14----12b------------------------|
D:-----------------------------|-12-13-14---------------14-12-------12-14--|
A:-----------------------------|------------------------------14-12--------|
E:-----------------------------|-------------------------------------------|

w/Fill 2


e:------------------------|-------------------------------------------|
B:---------------------14-|---12b------------------------------12-----|
G:---------------------14-|---12b------------------------------12-----|
D:------------------------|------------14-12-------12-14-12-------14--|
A:------------------------|------------------14-12----------14--------|
E:------------------------|-------------------------------------------|
e:------------------------|----------------------------------------|
B:------------------------|---------14--12b------------------------|
G:---------------------0--|---------14--12b------------------------|
D:----14------------------|12-13-14-------------14-12----12-12-14--|
A:------------------------|---------------------------14-12--------|
E:------------------------|----------------------------------------|
e:----------------------------|-----------------------------------|
B:------------------------12b-|---------------------------------0-|
G:------------------------12b-|-----------------0---------------0-|
D:----------------------------|---------14-14-----12-----14-------|
A:----------------------------|-----------------------------------|
E:----------------------------|-----------------------------------|
e:-----------------------------------------------|
B:------12b-----------------------------0----12b-|
G:--12--12b-----12---------------------------12b-|
D:--------------------------12---12-14-----------|
A:-----------------------------------------------|
E:-----------------------------------------------|
e:-------------------------------------||---------------------------------|
B:-------------------------------------||------------------------------5--|
G:--------------0--0-------------------||------------------------------7--|
D:-------14--14-------12--12-14-----14||-------------------7-----9-------|
A:-------------------------------------||----------7----9-----------------|
E:-------------------------------------||-7--9----------------------------|
e:-----------------------------------------------|
B:-----5------------------9--9------11b------11-|
G:-----7-----------------------------------------|
D:---------------9--9--11------------------------|
A:-----------------------------------------------|
E:-----------------------------------------------|
e:-------------------------------------|-----------------------------------|
B:----------------------------------5--|-----------------------------------|
G:----------------------------------7--|-------------------9-11b------9----|
D:----------------------7-----9--------|-------------9--9------------------|
A:-----------7------9------------------|-----------------------------------|
E:7--9---------------------------------|-----------------------------------|
e:-----------------------------------|-------------------------------------|
B:---------------------------------5-|-------------------------------------|
G:---------------------------------7-|--------------------9--9----11b--11-|
D:------------------7--------9-------|----------9--9--11-------------------|
A:----------7----9-------------------|-------------------------------------|
E:--7--9-----------------------------|-------------------------------------|
e:---------------------------------------------------------------------------|
B:---------------------------------------------------------------------------|
G:---------------------------------------------------------------------------|
D:---------------------7--------9------2---4-----5------4------2--------2---|
A:---------7-------9---------------------------------------------------------|
E:-7--9----------------------------------------------------------------------|

|
|
let ring—| |


e:----------------------------------------------||
B:----------------------------------------------||
G:-------------4------------------------------4-||
D:--4-----5---------4----5----2----4----------4-||
A:--------------------------------------------2-||
E:----------------------------------------------||

|


------------------------------------------------------------------

Fill 2 Fill 3 |
w/delay |


e:T------------------12-----12-||T------------------------------||-|--|
B:----------------12-----12----||----------5--------5/-12-------||-|--|
G:A----------------------------||A---------7--------------------||-|--|
D:-----------------------------||-------------------------------||-|--|
A:B----------------------------||B------------------------------||-|--|
E:-----------------------------||-------------------------------||-|--|

_________________________________________________________________|

To play the most songs, including Cleopatra’s Cat by Spin Doctors by ukulele, the most important basic ukulele chords to learn are C chord, D chord, G chord, and Em chord.
These set you up to play a a lot of songs, and each of them is easy to master.

If you are looking for In Berlin ukulele chords, you already come to the right site.
You can play versatile instrument In Berlin using ukulele or guitar.
This song by Sugarplum Fairy can also be played by that instruments.
=

In Berlin chords has rhythm and included in The Wild Ones (2008) album.
You can also get other musical style, including jazz ukulele chords, country music ukulele chords, pop ukulele chords, world music ukulele chords, and rock ukulele chords here.

In Berlin by Sugarplum Fairy Ukulele Chords


CAPO 4!

Intro:

B|-1-1-1-1-1-1-3-1-0-1-1-1-1-1-1-1-1-1-1-1-3-3-3-3-3-3-3-5-3-|
G|-2-2-2-2-2-2-2-2-2-2-0-0-0-0-0-0-0-0-0-0-0-0-0-0-0-0-0-0-0-|
D|-2-2-2-2-2-2-2-2-2-2-2-2-2-2-2-2-2-2-2-2-0-0-0-0-0-0-0-0-0-|
A|-0-0-0-0-0-0-0-0-0-0-3-3-3-3-3-3-3-3-3-3-2-2-2-2-2-2-2—–|
E|—————————————–3-3-3-3-3-3-3—–|

e|-0-0-0-0-0-0-0-0-0-0-0-|
B|-1-1-1-1-1-1-1-1-1-1-1-|
G|-2-2-2-2-2-2-2-2-2-2-2-|
D|-3-3-3-3-3-3-3-3-3-3-3-|
A|-3-3-3-3-3-3-3-3-3-3-3-|
E|———————–|

3x

Vers1
I’m with you in Berlin
Hide inside a dark hotel
Outside is anarchy and hell
Los souls rebel

In Berlin
I rather die thenstay with you
There’s nothing left for me to do
Here’s my adieu


Chorus x2
So can you hear me when I walk away?
You did not hear me when I tried to stay
I am with you in Berlin

Am C G F x2

I’m with you i Berlin
I walk along a burning street
But i can’t feel the heat
Am ( Let it ring )
Down fall concrete

In berlin
The Martyr’s got a hold of you
The orphans dying eyes are blue
Nothing spells true

Chorus x4
So can you hear me when I walk away?
You did not hear me when I tried to stay
I’m with you in Berlin

Alone is how I stand in the end
In Berlin

To play the this songs, including In Berlin by Sugarplum Fairy by ukulele, the most important basic ukulele chords to learn are C chord, D chord, G chord, and Em chord.
These set you up to play a a lot of songs, and each of them is easy to learn.

If you are looking for …Slowdance on the Inside ukulele chords, you’ve come to the best site.
You can play versatile instrument …Slowdance on the Inside using ukulele or guitar.
This song by Taking Back Sunday can also be played by that instruments.
=

…Slowdance on the Inside chords has rhythm and included in Other Songs album.
You can also get another musical genres, including jazz ukulele chords, country music ukulele chords, pop ukulele chords, world music ukulele chords, and rock ukulele chords here.

…Slowdance on the Inside by Taking Back Sunday Ukulele Chords



Passed out in our school clothes so we’d wake up in our Sunday’s best
I never asked for your opinion, I just got it and I get it
You move slow like daytime drama
And I’m boring like his songs
So while I’m taking you for granted
We’ll be humming along

D—————-(let it ring)

Well cross my heart and hope to
I’m lying just to keep you here
So reckless, So thoughtless, So careless
I should care less

Cross my heart I hope to
I’m lying just to keep you here
So reckless, So thoughtless
And I could care less

So paint your face up something elegant
And this time maybe a darker shade of red
Cause a long night means a fist fight
Against your pillow and my pearly whites
I want to hear you scream you like me better on my knees
So let us grieve
So let us grieve

D———————-

Don’t you ask me
Don’t you fight

Well cross my heart and hope to
I’m lying just to keep you here
So reckless, So thoughtless, So careless
I should care less

Cross my heart I hope to
I’m lying just to keep you here
So reckless, So thoughtless
And I could care less

This glass house is burning down
You light the match, I’ll stick around
I’ll give you everything you want
And wish the worst of what I was

x2

Tonight won’t make a difference
Tonight won’t make a difference
Tonight won’t make a difference
Well tonight won’t make a difference

To play the this songs, including …Slowdance on the Inside by Taking Back Sunday by ukulele, the most important basic ukulele chords to learn are C chord, D chord, G chord, and Em chord.
These set you up to play a many of songs, and each of them is easy to learn.

If you are looking for Love Won’t Be Leaving ukulele chords, you have come to the best place.
You can play versatile instrument Love Won’t Be Leaving using ukulele or guitar.
This song by Anna Calvi can also be played by that instruments.
=

Love Won’t Be Leaving chords has rhythm and included in album.
You can also find another musical genres, including jazz ukulele chords, country music ukulele chords, pop ukulele chords, world music ukulele chords, and rock ukulele chords here.

Love Won’t Be Leaving by Anna Calvi Ukulele Chords

Okey, so all this was done by ear and looking live videos, I’m pretty sure it’s 100%
correct although erare humanum est.

The song is played one half-step down (like the whole album)

I don’t tab rythm, just listen to the song while reading the tab, I don’t think that’s too hard.

Here is the intro :


eb ------------|
Bb ---10----8--|
Gb ----9----9--|
Db ---10----10-|
Ab ------------|
Eb ------------| x2

then


eb ------------------------|
Bb ----6---------6---------|
Gb ----7----5----7---(2)---|
Db ----8----7----8----3----|
Ab ---------7---------3----|
Eb --------(5)--------1----|

Played those two parts twice.

Then enter second guitar with a little riff (while guitar 1 is playing the F)


eb ---------------|
Bb ---------------|
Gb ---------------|
Db -------6...----| (let ring that Gb)
Ab ---6-7---------|
Eb ---------------|

Here is the verse, starting on the E tone, just turn with that riff :

“Hope this letter finds..”


eb ----------------------------|
Bb ----------^-------^---------|
Gb --0------5-4-----4-3---0----|
Db --2--------------------2----|
Ab --2--------------------2----| and then back to E
Eb --0----3------2--------0----|

Chorus :

This is basic chords:

Love won’t be leaving.. It won’t be gone until I find the way”

Played two times

Then :

I draw my name in the sun and I hope it will find you”


Love won’t be leaving.. It won’t be gone until I find the way—ay”

Back to verse 2, same as verse one :

“My desire is so strong..”


eb ----------------------------|
Bb ----------------------------|
Gb --0------5-4-----4-3---0----|
Db --2--------------------2----|
Ab --2--------------------2----| and then back to E
Eb --0----3------2--------0----|

Then after 4 times, comes the interlude, which is basically improvised on live version,
anyway I tab what is play on album :


eb -----------------------^----------------------------|
Bb ------5-(let ring)----5-3v--(lr)----^---------------|
Gb ---3b------------------------------4-2-----2-2-2-2b-|
Db ----------------------------------------------------|
Ab ----------------------------------------------------|
Eb ----------------------------------------------------|

^ pull-off
b bend
v vibrato`
(lr) let ring)

^


eb -----7-5b--0--7-5--------7-5----------------7-7-7b-----|
Bb ---5-----------------0--------etc... then--------------|
Gb -------------------------------------------------------|
Db -------------------------------------------------------|
Ab -------------------------------------------------------|
Eb -------------------------------------------------------|

Then back to :

I draw my name in the sun and I hope it will find you”

Two times, then back to lat chorus :

Love won’t be leaving.. It won’t be gone until I find the way”

Played two times

Then :

I draw my name in the sun and I hope it will find you”

Oh I draw my name in the sun and I hope it will find you”

Then this is the same but one whole step up, so it goes like this :

Love won’t be leaving.. It won’t be gone until I find the way” (Figure A)

Played two times then

Love won’t be leaving.. It won’t be gone until I find the way” (Figure B)

And back to : Bm – D – D – C – G

Then :

“La, la-la-la la, la la-la-la-la la”

Figure A x 2
Figure B x 1
Figura A x 1

Then back to F#, let ring, and the song ends.

That’s done, hope you’ll enjoy it,

To play the most songs, including Love Won’t Be Leaving by Anna Calvi by ukulele, the most important basic ukulele chords to learn are C chord, D chord, G chord, and Em chord.
These set you up to play a many of songs, and each of them is easy to master.

If you are searching for I Was Here ukulele chords, you have visit to the best place.
You can play versatile instrument I Was Here using ukulele or guitar.
This song by Diane Warren can also be played by that instruments.
=

I Was Here chords has Blues rhythm and included in album.
You can also get other musical style, including jazz ukulele chords, country music ukulele chords, pop ukulele chords, world music ukulele chords, and rock ukulele chords here.

I Was Here by Diane Warren Ukulele Chords

(This Is my first sh, it may not
be 100% correct but I hope you like it!
no capo needed)
VERSE 1:
I wanna leave my footprints on the sands of time
Know there was something that
Meant something that I left behind
When I leave this world,
I’ll leave no regrets
Leave something to remember,
So they won’t forget
VERSE 2:
I want to say I lived each day,
Until I die
And know that I meant
something in somebody’s life
The hearts I have touched,
Will be the proof that I leave
That I made a difference
And this world will see
CHORUS:
I was here…
I lived, I loved
I was here…
I did, I’ve done, everything that I wanted
And it was more than I thought it would be
I will leave my mark so everyone will know
I was here…
I lived, I loved
I was here…
I did, I’ve done, everything that I wanted
And it was more than I thought it would be
I will leave my mark so everyone will know
I was here…
BRIDGE:
I just want them to know
That I gave my all, Did my best
Brought someone some happiness
Left this world a little better just because…
I was here…
CHORUS:
I was here…
I lived, I loved
I was here…
I did, I’ve done, everything that I wanted
And it was more than I thought it would be
I will leave my mark so everyone will know
I was here…

To play the most songs, including I Was Here by Diane Warren by ukulele, the most important basic ukulele chords to learn are C chord, D chord, G chord, and Em chord.
These set you up to play a many of songs, and each of them is easy to learn.

If you are searching for Human Beings ukulele chords, you have come to the best place.
You can play versatile instrument Human Beings using ukulele or guitar.
This song by Seal can also be played by that instruments.
=

Human Beings chords has rhythm and included in Human Being (1998) album.
You can also get other musical style, including jazz ukulele chords, country music ukulele chords, pop ukulele chords, world music ukulele chords, and rock ukulele chords here.

Human Beings by Seal Ukulele Chords


Intro:
(Emadd2) ? Emi 4 measures
Em ? Bsus4 3x

It is only love I feel
Em Bsus4 Emi ? Emadd2
That will give us peace of heart
(Em) ? Bsus4 2x

In my hour of desperate need, I
Em Bsus4 Emi ? Emadd2
Feel closer to the one
(Em) ? Bsus4 2x

Oh but whyy ?[Em9/D] y

Chorus:
Please, Human being
If you bleed
They will say it was
Destined
They’ll be punchin’ tickets
By the minute
If you fall out of
Line
Desperate, desperate

Em ? Bsus4 2x

Tell me is it death you feel
That will bring you peace of life [-]

Inter:
(Who wants [/]
Tell me [/] you’re one of us
Tell me [/] you’re one
Tell me [/] you’re one of us
Tell me )

When you lose your self esteem
That’s when love die ? s, Ohhh

Chorus:
Please, Human being
If you bleed
They will say it was
Destined
They’ll be punchin’ tickets
By the minute
If you fall out of
Line

We’re mere Human beings
E Gmaj7 ? Cmaj7
We die So
So destined desperate

Inter:
Emadd2 (3 MEASURES)
(Well I feel
When you’ve reached number one
You look like you’re puffing but
Really only blocking the su – [/] n)
Blocking the su – [/] n
E Dsus2 ? Cmaj7 C
Blocking the su – u – un
(Blocking the sun, blocking the sun)
Blocking the su ? u ? n

Eadd2 / G7 ? Cmaj7 /
We’re mere Human beings we die
It’s [/] destined
They’ll be punchin’ tickets
By the minute
You?ll fall out of
Life (We’re mere human beings we die)

Outro:
We’re mere human beings
E G7 ? Cmaj7 C
We die (Desperate) It’s destined
We’re mere human beings
E G7 ? Cmaj7 C
We die (Desperate) it?s destined, destined

(START FADING)

Eadd2 – E – G7 ? Cmaj7 2x
We’re mere human beings we die//

To play the most songs, including Human Beings by Seal by ukulele, the most important basic ukulele chords to learn are C chord, D chord, G chord, and Em chord.
These set you up to play a many of songs, and each of them is easy to master.

If you are looking for Xin cho con niềm tin ukulele chords, you have visit to the right site.
You can play versatile instrument Xin cho con niềm tin using ukulele or guitar.
This song by Tịnh Hải can also be played by that instruments.
=

Xin cho con niềm tin chords has Boléro rhythm and included in album.
You can also get another musical style, including jazz ukulele chords, country music ukulele chords, pop ukulele chords, world music ukulele chords, and rock ukulele chords here.

Xin cho con niềm tin by Tịnh Hải Ukulele Chords

Xin cho con một niềm tin
Tin vào chính bản thân mình
Không phạm những điều răn
Hằng ngày sám hối ăn năn

Xin cho con một lòng nhân
Tình thương đem đến xa gần
Nhìn bằng ánh mắt từ bi
Trải rộng tấm lòng vị tha

Xin cho con một con đường
Đi vào nẻo chánh đường ngay
Để con tu tập thường ngày
Thân tâm an lạc từ đây

Xin cho mọi người như con
Tình yêu thương hãy song toàn
Dẹp hận thù đến với nhau
Cùng tu hành theo chánh đạo

To play the this songs, including Xin cho con niềm tin by Tịnh Hải by ukulele, the most crucial basic ukulele chords to learn are C chord, D chord, G chord, and Em chord.
These set you up to play a a lot of songs, and each of them is easy to learn.

If you are searching for Another Dead End Story ukulele chords, you already come to the right place.
You can play versatile instrument Another Dead End Story using ukulele or guitar.
This song by One Man Army can also be played by that instruments.
=

Another Dead End Story chords has rhythm and included in album.
You can also get another musical style, including jazz ukulele chords, country music ukulele chords, pop ukulele chords, world music ukulele chords, and rock ukulele chords here.

Another Dead End Story by One Man Army Ukulele Chords


Band: One Man Army
Song: Another Dead End Story
Album: Dead End Stories
Tabber: clark@theoddmenout.com

One Man Army is sweet street punk band with a real original style, and it’s about time!

Intro:


e--------------------------------|
B--------------------------------|
G?3b?-3b?-3b-3br-1----1-3-3v--1--|
D-------------------3------------|
A--------------------------------|
E--------------------------------|

Riff 1:


e-----------------------------------|------------------------------------|
B-----------------------------------|------------------------------------|
G-----------------------------------|--8---8---8-------------------------|
D?-3-3-3-3-3-3-3-3-3-3-3-3-3-3-3-3--|--8-8-8-8-8-8?-3-3-3-3-3-3-3-3-3-3--|
A?-3-3-3-3-3-3-3-3-3-3-3-3-3-3-3-3--|--6-8-6-8-6-8--3-3-3-3-3-3-3-3-3-3--|
E?-1-1-1-1-1-1-1-1-1-1-1-1-1-1-1-1--|----6---6---6?-1-1-1-1-1-1-1-1-1-1--|

Verse 1:
It’s been a long time comin’, but it’s finally come to this…
You win some, you lose some, it’s hit or miss
With the shadow of failure, my back bears the burden for it all
I’m just like the rest, and part of the problem

Chorus:
Well I’m always on the wrong streets- Another dead end story!
The cars never, they never stop for me- Another dead end story!
Bb F C,C,C
Biding my time, my time to strike- Another dead end story!

Riff 1

Verse 2:
I’ve been down for the count, but I always come back for more
I just pick myself up off the floor
I’ve been marked by the bruises of a bullet that never leaves me dead
So I can suffer the pain over again

Chorus x1

Solo:


e----1--1---1--1---1------------------------------------------------|
B----1--1---1--1---1------------------------------------------------|
G--3b-3b--3b-3b--3b-------------------------------------------------|
D---------------------2---------0--0-1--0---------------------------|
A-----------------------5p3-3-------------3-------0--1-1-0---0-1/3--|
E----------------------------------------------1-----------1--------|
e---------------------------1-1-1-1--|
B---------------------------1-1-1-1--|
G---------------5-3-2-----3----------|
D--2-5-3-2-3--3-------3--------------|
A------------------------------------|
E------------------------------------|

Outro Chorus:
Well it’s always the wrong time wrong place- Another dead end story!
The right names but the wrong streets- Another dead end story!
Bb F C,C,C
It’s the same old useless news to me- Another dead end story!

Riff 1 x2

That’s it! For suggestions, corrections, and requests, email me:
oddmenout4@yahoo.com

To play the most songs, including Another Dead End Story by One Man Army by ukulele, the most crucial basic ukulele chords to learn are C chord, D chord, G chord, and Em chord.
These set you up to play a ton of songs, and each of them is easy to master.