Sudoku Game

If you are searching for Lounge ukulele chords, you have visit to the right place.
You can play versatile instrument Lounge using ukulele or guitar.
This song by Modest Mouse can also be played by that instruments.
=

Lounge chords has rhythm and included in This Is a Long Drive for Someone With Nothing to Think About (1996) album.
You can also find another musical genres, including jazz ukulele chords, country music ukulele chords, pop ukulele chords, world music ukulele chords, and rock ukulele chords here.

Lounge by Modest Mouse Ukulele Chords


---------------------
---------------------

Tuning: EADGBe

LOUNGE

Main Riff Structure (played in A#m)


e|--------------------|--------------------|
B|--------------------|--------------------|
G|--------------------|--------------------|
D|-8-xx-8-x-4-5-7-5-4-|-8-xx-8-x-7-5-4-5-7-|
A|-x-xx-x-------------|-x-xx-x-x-----------|
E|-6-xx-6-------------|-6-xx-6-x-----------|

Interlude Riff Harmonics


e|------------------|----------|----------|
B|------------------|----------|----------|
G|-7---7---7--------|----------|----------|
D|-7/8-7/8-7/8-7-8-|----5+----|----7+----|
A|------------------|-4+----4+-|-7+----7+-|
E|------------------|----------|----------|

1:30 Chords


e|-6-|-3-|-2-|
B|-6-|-3-|-2-|
G|-6-|-3-|-2-|
D|-8-|-5-|-4-|
A|-8-|-5-|-4-|
E|-6-|-3-|-2-|

ENDING OUTRO

2:33


e|-----------------|-----------------|-----------------|
B|-----------------|-----------------|-----------------|
G|-7/8-------------|-7/8-------------|-7/8-----7--8-10-|
D|-----7/8-5/6-7/8-|-----7/8-5/6-----|-----7/8---------|
A|-----------------|-------------5/6-|-----------------|
E|-----------------|-----------------|-----------------|
e|-----------------------------------------|
B|-----------------------------------------|
G|-10-10-10-10-10-10-10-10-8-8-8-8-7-7-8-8-|
D|-----------------------------------------|
A|-----------------------------------------|
E|-----------------------------------------|
e|-----------------------------------------|
B|-----------------------------------------|
G|-10-10-10-10-10-10-10-10-8-8-8-8-7-7-----|
D|-------------------------------------8-8-|
A|-----------------------------------------|
E|-----------------------------------------|
e|-------------------------|
B|----10-11-13-15-13-11-10-|
G|-10----------------------|
D|-------------------------|
A|-------------------------|
E|-------------------------|
e|-------------------|
B|-10/11-------------|
G|-------9/10-7/8-10-|
D|-------------------|
A|-------------------|
E|-------------------|

There’s like 3 variations of each riff and I’m not listing them all.
But they are made up of the notes listed.


e|----------------------------------|
B|--------------------10-11-13-15---|
G|-7-8-------------10-------------9-|
D|-----7-8-5-6----------------------|
A|-------------5-6------------------|
E|----------------------------------|

| / slide up
| slide down
| h hammer-on
| p pull-off
| ~ vibrato
| + harmonic
| x Mute note

To play the most songs, including Lounge by Modest Mouse by ukulele, the most crucial basic ukulele chords to learn are C chord, D chord, G chord, and Em chord.
These set you up to play a many of songs, and each of them is easy to learn.

If you are looking for Telepathy ukulele chords, you’ve come to the best place.
You can play versatile instrument Telepathy using ukulele or guitar.
This song by BTS can also be played by that instruments.
=

Telepathy chords has rhythm and included in album.
You can also find other musical style, including jazz ukulele chords, country music ukulele chords, pop ukulele chords, world music ukulele chords, and rock ukulele chords here.

Telepathy by BTS Ukulele Chords


maebeon gateun harudeul junge
neoreul mannal ttae gajang nan haengbokhae
maebeon dareun ilsangdeul soge
neoran sarameun naege gajang teukbyeolhae
 
byeorireun eopji apeun goseun eopgetji
nan yojeume geulsse bung tteo beorin geot gata
maneun shigan deoge ireon norael sseune
igeon neoreul wihan norae Yeah norae yeah norae
 
ja tteonaja pureun badaro
uriga hamkke ttwieonoldeon jeo pureun badaro
gwaenhan geokjeongdeureun jamshi naeryeonoeun chaero jamshi
urikkiri jeulgyeoboja hamkke chueokhaneun
pureun bada hangaunde jageun seom
birok jigeumeun meoreojyeosseodo
uri maeummaneun ttokgatjana nae gyeote nega eopseodo yeah
ne gyeote naega eopseodo yeah urin hamkkein geol da aljana
 
maebeon gateun harudeul junge
neoreul mannal ttae gajang nan haengbokhae
maebeon dareun ilsangdeul soge
neoran sarameun naege gajang teukbyeolhae
 
achim deulpulcheoreom ireona geoulcheoreom nan neoreul hwagin
nunkkob daeshin neoman
mudeotta jantteuk tto mugeobda meong maneun mureupagi
georil geonilmyeo saenggakhae i
byeori heorakhae juneun uriye geori
Oh can I be your Bibilly Hills Like you did the same to me (Baby)
 
neomu ppareun geon jogeum wiheomhae
neomu neurin geon jogeum jiruhae
neomu ppareujido anke
ttoneun neurijido anke
uriye sokdoe matchweo gabojago
igeon kkwaena gin jeulgeoun rolleokoseuteo
 
birok jigeumeun meoreojyeosseodo
uri maeummaneun ttokgatjana
nae gyeote nega eopseodo yeah
ne gyeote naega eopseodo yeah
urin hamkkein geol da aljana
 
maebeon gateun harudeul junge
neoreul mannal ttae gajang nan haengbokhae
maebeon dareun ilsangdeul soge
neoran sarameun naege gajang teukbyeolhae

To play the this songs, including Telepathy by BTS by ukulele, the most crucial basic ukulele chords to learn are C chord, D chord, G chord, and Em chord.
These set you up to play a a lot of songs, and each of them is easy to master.

If you are looking for Hit By a Rock ukulele chords, you’ve visit to the best site.
You can play versatile instrument Hit By a Rock using ukulele or guitar.
This song by Throbbing Gristle can also be played by that instruments.
=

Hit By a Rock chords has rhythm and included in D.o.A. The Third and Final Report (1978) album.
You can also find other musical genres, including jazz ukulele chords, country music ukulele chords, pop ukulele chords, world music ukulele chords, and rock ukulele chords here.

Hit By a Rock by Throbbing Gristle Ukulele Chords


How’s that? x8
Hit by a rock
Spoiling my breakfast
Hit by a rock
Blood and brains on my marmalade
Hit by a rock


Blood and brains on my marmalade

F#m E x2

Anti-hero
Anti-hero
Hit by a rock
Hit by a rock
I see your face right in my marmalade
Feel like throwing up but I can’t say
Hit by a rock
Hit by a rock
Makes my meal OK
Makes me feel someday
Hit by a rock
Hit by a rock
Hit by a rock
Hit by a rock
Who did it?
Who did it?
Whose is it?
Hit by a rock
Hit by a rock

To play the this songs, including Hit By a Rock by Throbbing Gristle by ukulele, the most crucial basic ukulele chords to learn are C chord, D chord, G chord, and Em chord.
These set you up to play a many of songs, and each of them is easy to learn.

If you are searching for Nơi Anh Không Thuộc Về ukulele chords, you have come to the best site.
You can play versatile instrument Nơi Anh Không Thuộc Về using ukulele or guitar.
This song by Andy Trần can also be played by that instruments.
=

Nơi Anh Không Thuộc Về chords has Ballade rhythm and included in album.
You can also get other musical style, including jazz ukulele chords, country music ukulele chords, pop ukulele chords, world music ukulele chords, and rock ukulele chords here.

Nơi Anh Không Thuộc Về by Andy Trần Ukulele Chords


Kỉ niệm qua khiến tim nhạt nhòa 
Một người đau, một người bỏ lại phía sau
Một tình yêu giống như là
Mà vì sao chỉ còn mình tôi mãi chờ
~~~~~~~~~~~~~~~~~
One night, two days
Anh nơi đây, anh vẫn luôn mong chờ
 Vì 1 cuộc tình hôm qua đâu có ngờ
 Giờ đã trôi theo mây về ai
Có những lúc thở dài, tôi thật 
buồn tôi chỉ nhớ đến ai
Bao yêu thương hôm qua có thể dừng lại
Chờ 1 ngày tôi lại thấy sớm mai|
~~~~~~~~~~~~~~~~~~~~~~~~~~ 
Vì anh biết có lúc ta rời xa nhau
Vì anh biết nước mắt đã hết khi người mỉm cười 
Vào tình yêu anh đã cố gắng khắc giữ
Hỡi em, my baby girl, woh woo oh…
 ~~~~~~~~
Mình hãy cứ sống thế đi
Em cứ mãi ước mơ
Em cứ luôn mong chờ điều tuyệt vời nhé em
Và anh sẽ mãi bước đi
Sẽ cố gắng mỉm cười
Cố gắng quên đi bao
nhiêu tình yêu tan vỡ như là giấc
No love no life
No love no life
Và rồi anh sẽ quay về nơi ấy
No love no lifeNo love no life
Anh không thuộc về nơi này nữa đâu.

To play the this songs, including Nơi Anh Không Thuộc Về by Andy Trần by ukulele, the most important basic ukulele chords to learn are C chord, D chord, G chord, and Em chord.
These set you up to play a a lot of songs, and each of them is easy to master.

If you are looking for Tình say ukulele chords, you have come to the right place.
You can play versatile instrument Tình say using ukulele or guitar.
This song by can also be played by that instruments.
=

Tình say chords has rhythm and included in album.
You can also find another musical genres, including jazz ukulele chords, country music ukulele chords, pop ukulele chords, world music ukulele chords, and rock ukulele chords here.

Tình say by Ukulele Chords


1. Gọi em cuối giấc chiêm bao
Trái tim nhịp khuất ngạt ngào hương bay
Hôn em giữa gối chăn đầy
Giữa đêm ảo giác anh say tình nồng.

2. Trời nay mới chớm sang đông
Mắt em rực sáng tô hồng cao nguyên
Yêu em duyên dáng thân mềm
Thơm môi má phấn thoáng miền sông Thu

ĐK:
Nhớ nhớ em vạn dặm sầu
Tuyết đem khuất lấp mới từ tạ nhau
Môi hôn nhuộm chút men sầu
Tình ta nhỏ giọt mưa ngâu tuyệt vời.

3. Ngày em giây phút chạm đời
Dấu yêu gọi mãi dáng gầy chơi vơi
Mai qua phố cũ mê say
Anh mơ tập vẽ chân mày mỹ nhân.

To play the most songs, including Tình say by by ukulele, the most important basic ukulele chords to learn are C chord, D chord, G chord, and Em chord.
These set you up to play a many of songs, and each of them is easy to master.

If you are searching for No Time ukulele chords, you’ve visit to the best site.
You can play versatile instrument No Time using ukulele or guitar.
This song by The Monkees can also be played by that instruments.
=

No Time chords has rhythm and included in Headquarters (1967) album.
You can also find other musical genres, including jazz ukulele chords, country music ukulele chords, pop ukulele chords, world music ukulele chords, and rock ukulele chords here.

No Time by The Monkees Ukulele Chords


This is “No Time” by the Monkees on the albu Headquarters.

Hober reeber sabasoben
Hobaseeba snick
Seeberraber hobosoben
What did you expect?

No time, no time for you.
I got no time, baby,
Got lots of better things to do.

Runnin’ from the risin’ heat
To find a place to hide,
The grass is always greener
Growin’ on the other side.

No time, no time for you
I got no time, baby,
Got lots of better things to do.


E-12-12-12-12-12-9-7-9-12-12-12-12-12-9-7-9-|
B-12-12-12-12-12-9-7-9-12-12-12-12-12-9-7-9-|
G-------------------------------------------|
D-------------------------------------------|
A-------------------------------------------|
E-------------------------------------------|


E-12-12-12-12-12-12-12-12-12---12-----------|
B-12-12-12-12-12-12-12-12-12-12b-12b--------|
G-----------------------------------13------|
D-------------------------------------14----|
A-------------------------------------------|
E-------------------------------------------|

No time, no time for you
I got no time, baby,
Got lots of better things to do.


E-12-12-12-12-12-9-7-9-12-12-12-12-12-9-7-9-|
B-12-12-12-12-12-9-7-9-12-12-12-12-12-9-7-9-|
G-------------------------------------------|
D-------------------------------------------|
A-------------------------------------------|
E-------------------------------------------|


E-12-12-12-12-12-12-12-12-12---12-----------|
B-12-12-12-12-12-12-12-12-12-12b-12b--------|
G-----------------------------------13------|
D-------------------------------------14----|
A-------------------------------------------|
E-------------------------------------------|

No time, no time for you
I got no time, baby,
Got lots of better things to do.

Tryin’ to tell the world
Somehow of how I feel.
Tell me what you said again,
I can’t believe it’s real.

No time, no time for you
I got no time, baby,
Got lots of better things to do.

Andy, you’re a dandy,
You don’t seem to make no sense.
Nevermind the furthermore,
The plea is self-defense

No time, no time for you
I got no time, baby,
Got lots of better things to do.

Got no time
I got no time
(Repeat, adlib and fade)

To play the this songs, including No Time by The Monkees by ukulele, the most crucial basic ukulele chords to learn are C chord, D chord, G chord, and Em chord.
These set you up to play a many of songs, and each of them is easy to master.

If you are searching for Things I Can’t Change ukulele chords, you have visit to the best site.
You can play versatile instrument Things I Can’t Change using ukulele or guitar.
This song by The Story So Far can also be played by that instruments.
=

Things I Can’t Change chords has rhythm and included in What You Don’t See (2013) album.
You can also get other musical style, including jazz ukulele chords, country music ukulele chords, pop ukulele chords, world music ukulele chords, and rock ukulele chords here.

Things I Can’t Change by The Story So Far Ukulele Chords


Intro: G# Eb Fm x2

Verse 1:
This twitch in my
fingers Love hate it
lingers Sent it direct
but the point must have
missed her Gave up and
lost cause of timing
and pressure And
now I’m gone

Chorus 1:
Lie alone it’s all
you can do now
And hear me drone
About the things
I can’t change
Lie alone it’s
all you can do now
And hear me hear
me drone on my own

Verse 2:
What has this come to?
I know you don’t see
me as much you ought
to And both wounds
are bleeding out
Grace me with nothing
but patience I’ll
admit that I hate
this if there’s no
other way out if
there’s no other
way out if there’s
no other way out

(Repeat Chorus 1)

Interlude: G# Cm Bb Fm

Bridge:
On the outs with
everything The
calm and talk you
seldom bring
On the outs with
everything The calm
and talk you seldom
bring On the outs
with everything
The calm and talk
you seldom bring

Chorus 2:
Lie alone it’s all
you can do now
And hear me drone
About the things
I can’t change
Lie alone it’s
all you can do now
And hear me hear
Eb Fm G#(hold)
me drone on my own

To play the most songs, including Things I Can’t Change by The Story So Far by ukulele, the most crucial basic ukulele chords to learn are C chord, D chord, G chord, and Em chord.
These set you up to play a a lot of songs, and each of them is easy to learn.

If you are looking for North Country Boy ukulele chords, you have visit to the right site.
You can play versatile instrument North Country Boy using ukulele or guitar.
This song by The Charlatans can also be played by that instruments.
=

North Country Boy chords has rhythm and included in Tellin’ Stories (1997) album.
You can also find other musical style, including jazz ukulele chords, country music ukulele chords, pop ukulele chords, world music ukulele chords, and rock ukulele chords here.

North Country Boy by The Charlatans Ukulele Chords


I’ll start off will the chords:
A x O 2 2 2 O
Dsus2/A x O 4 2 3 O
E O 2 2 1 O O
D x x O 2 3 2
C5 x 3 5 x x x
Bm x 2 4 4 3 2
G 3 2 O O O 3

Intro
[—–]Chords: A . Dsus2/A .


E|-----------------------------------|
B|--------5-5-5-------5-5-5-----5-5--|
G|--4h6-6-------4h6-6-------4h6------|
D|-----------------------------------|
A|-----------------------------------|
E|-----------------------------------| x4

Verse 1
It’s just the rhythm guitar in the verse except for a few lead fills
which I’ll tab when we get to them:

Hey,[Dsus2/A] Country boy,[Dsus2/A]
Hey,[Dsus2/A] Country boy,[Dsus2/A]
What are you sad about, [Dsus2/A]every day you make the sun come out,
Even in the pouring rain,
I’ll come to see you, And I’ll save you, I’ll save you.

Fill 1
A . Dsus2/A . . . A .


E|-----------------------|---------O----|
B|-/10-10-10-10---10-10--|------3--2----|
G|-/11-11-11-11---11-11--|------2--2----|
D|-----------------------|--2h4----2----|
A|-----------------------|---------O----|
E|-----------------------|--------------|

What do you care ab[Dsus2/A]out? She says, ‘this and that[Dsus2/A],’
What do I mean to you? [Dsus2/A]I’ll show you if you want me to.
I can’t remember, I don’t know how to tell you,
But I love you just the same.

Fill 2
A . Dsus2/A . A . . .


E|-----------------------|--------12-12---------12-12---|
B|-/10-10-10-10---10-10--|--12h14--------12h14----------|
G|-/11-11-11-11---11-11--|------------------------------|
D|-----------------------|------------------------------|
A|-----------------------|------------------------------|
E|-----------------------|------------------------------|

Bridge
How many eyes must a young girl have?
I know she makes you cry, I know she makes you laugh,
I’d be good to you, if I could I’d make you happy,
If I had a son I’d be good to my Daddy,
Who loves you but I bet it’s not the same
as your, North Country Boy.

Fill 3
A . Dsus2/A . A . Dsus2/A .


E|--------------------------------|---------------------12------|
B|-9h10--9h10--------10p9---------|--/15-/15--14--12h14-----14--|
G|-9-----9-----9h11-------9-------|--/16-/16--------------------|
D|-9h11--9h11---------------11p9--|-----------------------------|
A|--------------------------------|-----------------------------|
E|--------------------------------|-----------------------------|

Verse 2
Hey,[Dsus2/A] Country Boy,[Dsus2/A]
What’re you sad about, [Dsus2/A]I think we’ll work it out,
Even in the morning rain, I’ll come to see you,
Hope your feelings’re the same. (Repeat Fill 2)

Bridge
How many ears must a young girl have?
I know she hears you cry, I know she makes you laugh,
Itchy and Scratchy come runnin’ up the alley,
If you’d be good, I’d be good to your Daddy,
Who loves you but I bet it’s not the same
as your, North Country Boy.

Instrumental

Play the intro riff again. There’s a harmonic pumping out behind it
this time. This can be found by lightly touching the 3rd (G) string
directly above the 5th fret – don’t press down, but play the string
and it should ring. It may need a bit of distortion to bring it out.

Then the guitar solo starts. I think it’s played with a slide, but
if you don’t have one or an empty pint-glass to hand, it sounds
alright by just fretting the notes with your fingers and add plenty
of vibrato.

A . Dsus2/A . A . Dsus2/A . A . Dsus2/A .


E|----------------------|---------------------|---------------------|
B|--/2------------------|-/7--7--------------|-/7--7--------------|
G|--/2------------------|-/7--7--------------|-/7--7--------------|
D|--/2------------------|-/7--7--------------|-/7--7--------------|
A|-----O/3-/5-5-5-/7/10-|---------3O-O-----O-|---------3O-O-----O-|
E|----------------------|---------------------|---------------------|

A . Dsus2/A . A . . . A . Dsus2/A .


E|------------------------|----------------------|---------------------|
B|-/7--7-----------------|--/2------------------|-/7--7--------------|
G|-/7--7------O----O-----|--/2------------------|-/7--7--------------|
D|-/7--7--------/2---/2--|--/2------------------|-/7--7--------------|
A|---------3O------------|-----O/3-/5-5-5-/7/10-|---------3O-O-----O-|
E|------------------------|----------------------|---------------------|

A . Dsus2/A . A . . C5


E|------------------------|----------------------|
B|-/7--7-----------------|--/2------------------|
G|-/7--7------O----O-----|--/2------------/5----|
D|-/7--7--------/2---/2--|--/2----------5-------|
A|---------3O------------|-----O/3-/5-5---------|
E|------------------------|----------------------|

Over the last 3 bars of the solo a louder, more prominent overdub
is played. It goes a little something like this:


E|-------------------|-------------------|---------------------|
B|-------------------|-------------------|---------------------|
G|-------------------|-------------------|---------------------|
D|-------------------|-------------------|------7-7-9p7---7----|
A|--7h9p7------------|--7h9p7------------|--7h9---------9------|
E|--------7h9-7-5-5--|--------7h9-7-5-5--|-------------------8-|

Verse 3

What do you care ab[Dsus2/A]out? She says, ‘this and that[Dsus2/A],’
What do I mean to you? [Dsus2/A]I’ll show you if you want the truth.
I threw it all away, I don’t know where I put it,
But I miss it just the same. (Repeat Fill Ad Lib)

Bridge
How many eyes must a young girl have?
I know she makes you cry, I know she makes you laugh,
I’d be good to you, if I could I’d make you happy,
If I had a son I’d be good to my Daddy,
Who loves you but I bet it’s not the same
as your, North Country Boy.

Outro

A weird chord starts playing, I think it’s C#7b5 but you play it
like this:

E|–7–| This is played a few times with that
B|–8–| Fret five harmonic repeating.
G|–6–| Finally the original intro riff comes
D|—–| back in, plus ad lib vocals and
A|—–| the song fades out.
E|—–|

The End

To play the this songs, including North Country Boy by The Charlatans by ukulele, the most important basic ukulele chords to learn are C chord, D chord, G chord, and Em chord.
These set you up to play a many of songs, and each of them is easy to learn.

If you are searching for Sincerely Me ukulele chords, you’ve come to the best place.
You can play versatile instrument Sincerely Me using ukulele or guitar.
This song by New Found Glory can also be played by that instruments.
=

Sincerely Me chords has rhythm and included in New Found Glory (2000) album.
You can also get other musical genres, including jazz ukulele chords, country music ukulele chords, pop ukulele chords, world music ukulele chords, and rock ukulele chords here.

Sincerely Me by New Found Glory Ukulele Chords


SINCERELY ME – A New Found Glory
By: James Diaz
PM – Palm Mute
BR – Backround
~ – Let Ring
cords


e|--- --- --- --- ---- --- -------|
B|--- --- --- --- ---- --- -------|
G|--- --- --- --- ---- ------- ---|
D|--- -9- -7- -5- -10- -4- ---|
A|--- -9- -7- -5- -10- -4- ---|
E|--- -7- -5- -3- --8- -2- ---|

Intro: Bass


G|---------------------------------------------------------------------------|
D|------4-5-------4-5-----4-4-5-9-5------------------------------------------|
A|---------------------------------------------------------------------------|
E|---33--------33------77----------------------------------------------------|

[All of this is within the intro]
Dear your name here. Its been a long time very long time. Since ive heard your
voice and I bet she never thought i was.
[A LR]
….So sorry so, I got a hard time very hard time seeing less of yooouuu
[ Scream this part out ] PM
I never thought you kneewwww.
.. So can you seeeeee your seeing less of me darliiiing. And your blind to the
fact that my hearts stoping. .....……..And im as good as deeeeeeead.…….
And im as good as deeeeeead.
[Intro
Dear I forgot your name again just picking up her letsoffoh yeaaah.
[A LR]
This is the part where you leave me…..So sorry so, I’ve had a hard time very
hard time seeing less of
[ Scream this part out ] PM]
yoooou I never thought you kneeeeew.
.So can you seeeeeee your seeing less of me darling. And your blind to
the fact that my hearts stoping. So can you seee your seeing less of me darling.
And your blind to the fact that my hearts stoping. ..And im as good as deead.
[
Bridge:
guitar one


e|-----------------------------------------------------------------------------------------------------------|
B|-----------------------------------------------------------------------------------------------------------|
G|------------------------------------5555555555555555---------------------------------------------|
D|--5555555555555555-7777777777777777-5555555555555555-----------------------|
A|--5555555555555555-7777777777777777-3333333333333333-----------------------|
E|--3333333333333333-5555555555555555----------------------------------------------------|
PM-------------------------------------------------PM

Listen to song to figure this part out.


e|---------------------------------------------------------------------------|
B|---------------------------------------------------------------------------|
G|-----------------------5---------------------------------------------------|
D|---5-5-5-5-----5-5-5-5-5------5-5-5-5----5-5-5-5-7-------------------------|
A|---5-5-5-5-----5-5-5-5-3------5-5-5-5----5-5-5-5-7-------------------------|
E|---3-3-3-3-----3-3-3-3--------3-3-3-3----3-3-3-3-5-------------------------|

guitar two


e|---------------------------------------------------------------------------|
B|---------------------------------------------------------------------------|
G|-------7-7-7-6-6-6-4-4-6-6-6-6-6-6-6---------------------------------------|
D|---------------------------------------------------------------------------|
A|---------------------------------------------------------------------------|
E|---------------------------------------------------------------------------|

[This…this is all….. I have ….to saaaay …..to saaaaay..GO]
.So can you seeeeee your seeing less of me darling. And your blind to the fact that
my hearts stoping. …..So can you seeeeee so can you see your seeing less of me darling.
And your blind to the fact that my hearts stopiiiing stoping
.So can you seeeeee your seeing less of me darling. And your blind to the fact that

my hearts stoping stopiiing stoping stoping.

To play the this songs, including Sincerely Me by New Found Glory by ukulele, the most crucial basic ukulele chords to learn are C chord, D chord, G chord, and Em chord.
These set you up to play a many of songs, and each of them is easy to learn.

If you are searching for Mãi mãi một tình yêu ukulele chords, you already come to the right site.
You can play versatile instrument Mãi mãi một tình yêu using ukulele or guitar.
This song by Hoài An (trẻ) can also be played by that instruments.
=

Mãi mãi một tình yêu chords has Ballade rhythm and included in album.
You can also get other musical genres, including jazz ukulele chords, country music ukulele chords, pop ukulele chords, world music ukulele chords, and rock ukulele chords here.

Mãi mãi một tình yêu by Hoài An (trẻ) Ukulele Chords


Đêm từng đêm khi màn sương
Buông xuống trên thênh thang bao nhiêu nẻo đường
Anh ngồi đây nhớ em nhiều
Và thầm mong một ngày rực rỡ tình yêu

Anh chờ em như lúc xưa
Như bây giờ và chờ đợi mai sau
Cho dù mưa giông, cho dù nắng cháy, anh vẫn chờ

Những tiếng cười rộn vang khung trời
Rồi lúc dỗi hờn em lặng im không nói
Những tháng ngày hồn nhiên nô đùa
Tuổi thơ tuyệt vời người ơi

Chiếc lá vàng nhẹ rơi cung đàn
Những nốt nhạc cho bài ca anh hát
Hát với đời ngày vui bên người
Để con tim nghe thiết tha

Lòng em trót yêu em lâu rồi
Mà chưa dám nói câu yêu người
Sợ tình mong manh xóa nhòa ngày xanh
Đành câm nín em đâu hay tình anh

Mùa xuân đến bên em tươi cười
Hòa vào tia nắng mai yêu đời
Mùa thu đi qua nói gì cùng em
Mùa đông đến anh lơ ngơ từng đêm

Ngày xưa đã cho anh hi vọng
Một ngày em hiểu anh nỗi lòng
Cuộc đời cho ta quá nhiều ngày vui
Cần chi nói những lời đầu môi, phải không em?

To play the most songs, including Mãi mãi một tình yêu by Hoài An (trẻ) by ukulele, the most important basic ukulele chords to learn are C chord, D chord, G chord, and Em chord.
These set you up to play a many of songs, and each of them is easy to master.