Parallel Minds by Conception Ukulele Chords

Posted on

If you are searching for Parallel Minds ukulele chords, you already visit to the best site.
You can play versatile instrument Parallel Minds using ukulele or guitar.
This song by Conception can also be played by that instruments.
=

Parallel Minds chords has rhythm and included in Parallel Minds (1993) album.
You can also get another musical style, including jazz ukulele chords, country music ukulele chords, pop ukulele chords, world music ukulele chords, and rock ukulele chords here.

Parallel Minds by Conception Ukulele Chords


Conception – Parallel Minds

Tuning is Half Step Down (Eb Ab db gb bb e1b) , but you can play it in standard tuning too.

/ Slide Up
Slide Down
h Hammer On
p Pull Off
b Bend
– Tremolo Bar Bend
+ Tremolo Bar Dive
r Release Bend
t Tapping
~ Vibrato
P.M. Palm Muting
A.H. Artificial Harmonic
P.H. Pinch Harmonic
N.H. Natural Harmonic

126 BPM

Riff 1


Eb|--------------------------------------------------------------------|
Bb|--------------------------------------------------------------------|
Gb|--------------------------------------------------------------------|
Db|---------4-----------------4-----------4-------------------4--------|
Ab|--------------------------------------------------------------------|
Eb|-2-2-2-2-----2--2--2-2-2-2-----2-2-2-2-----2--2--2-2-2-2-2----------|

PM


|--------------------------------------------------------------------|
|--------------------------------------------------------------------|
|--------------------------------------------------------------------|
|-----------4-----------------4-----------4-------------------4------|
|--------------------------------------------------------------------|
|-2-2-2-2-2-----2--2--2-2-2-2-----2-2-2-2-----2--2--2-2-2-2-2--------|

PM

Solo 1


+- - - - +- - - - -
|--------------------------------------------------------------------|
|------12----12/14~~----12~----15-~~-14-14-12-14--12-----------------|
|-/11~~---11---------11-----11-----------------------14-13-14--------|
|--------------------------------------------------------------------|
|--------------------------------------------------------------------|
|--------------------------------------------------------------------|

[-]


|--------------------12/14--14-17-14-16b--14-17-14-16b--14-17-14-17b-|
|-----12---12-12/14~~------------------------------------------------|
|-11~~---11----------------------------------------------------------|
|--------------------------------------------------------------------|
|--------------------------------------------------------------------|
|--------------------------------------------------------------------|

[-]


|-17-16-14----14--14-------------------------------------------------|
|----------17--------17-15-14----------------------------------------|
|-----------------------------16-14-13------------------------------|
|--------------------------------------------------------------------|
|--------------------------------------------------------------------|
|--------------------------------------------------------------------|

(In this place you can play keyboard chord progression:
Fsus2 , A#sus2 , Ebsus2 , A#sus2) x2

Riff 2


|--------------------------------------------------------------------|
|--------------------------------------------------------------------|
|--------------------------------------------------------------------|
|-----------------------2-----22-------------------------------------|
|------4-----44--------------------------5-----55------------4----44-|
|-2-22---2-2----222-2-2---2-2---222--2-2---2-2----2-2-2--2-2---22----|

PM

Riff 3


|--------------------------------------------------------------------|
|--------------------------------------------------------------------|
|-------4--------6--4--------------4--------6--4--4------------------|
|-4--4--4-----4--6--4--7-----4--4--4-----4--6--4--4--7--7------------|
|-4--4--2-----4--4--2--7-----4--4--2-----4--4--2--2--7--7------------|
|-2--2--------2--------5-----2--2--------2-----------5--5------------|

Riff 4


|--------------------------------------------------------------------|
|--------------------------------------------------------------------|
|------------------------------------4-------------------------------|
|---4----4------------4---4----------4----7--6-----------------------|
|---4----4------------4---4----------2----7--6-----------------------|
|-22---22--22222222-22--22--22222222------5--4--4-5-4-5--------------|

PM


|--------------------------------------------------------------------|
|--------------------------------------------------------------------|
|------------------------------------4-------------------------------|
|---4----4------------4---4----------4---------------------------4-4-|
|---4----4------------4---4----------2---------------------------4-4-|
|-22---22--22222222-22--22--22222222----2-2-2-2--2-2-222-2-2-2-2-2-2-|

PM

Bridge


|--------------------------------------------------------------------|
|--------------------------------------------------------------------|
|--------------------------------------------------------------------|
|--------------------------------------------------------------------|
|--------------------------------------------------------------------|
|-2-2-2-2--2-2-2-2-2---2-2-2-2--2-2-2-4-4-4-4-5-5-5-5----------------|

PM


|--------------------------------------------------------------------|
|--------------------------------------------------------------------|
|--------------------------------------------------------------------|
|--------------------------------------------------------------------|
|--------------------------------------------------------------------|
|-2-2-2-2--2-2-2-2-2---2-2-2-2--2-2-2-5-5-5-5-4-4-4-4----------------|

PM

Solo 2


+- - - - +- - - - -
|--------------------------------------------------------------------|
|------12----12/14~~----12~----15-~~-14-14-12-14--12-----------------|
|-/11~~---11---------11-----11-----------------------14-13-14--------|
|--------------------------------------------------------------------|
|--------------------------------------------------------------------|
|--------------------------------------------------------------------|

[-]


|--------------------12/14--14-17-14-16b--14-17-14-16b--14-17-14-17b-|
|-----12---12-12/14~~------------------------------------------------|
|-11~~---11----------------------------------------------------------|
|--------------------------------------------------------------------|
|--------------------------------------------------------------------|
|--------------------------------------------------------------------|
|-14-17-14-16b---14-17-16-14-----------------------------------------|
|----------------------------17b-17b-15-14----14---------------------|
|------------------------------------------16----16-14-14~~----------|
|--------------------------------------------------------------------|
|--------------------------------------------------------------------|
|--------------------------------------------------------------------|

[-] [-] [-]


|----------------------------------------------------------17--------|
|---------------------------------------14-14-/17-17-19-19-----------|
|-/13-14-13~-14-13--------14~-13-14-/16------------------------------|
|------------------14-16---------------------------------------------|
|--------------------------------------------------------------------|
|--------------------------------------------------------------------|
|-19-19-19---------19-/21-21-----------17/19-------------------------|
|----------17-17~~-----------19-17-19~~------17-15-17~~--------------|
|--------------------------------------------------------------------|
|--------------------------------------------------------------------|
|--------------------------------------------------------------------|
|--------------------------------------------------------------------|
|-17-16-14-----------------------------------------------------------|
|----------17-17p15p14----14-15--17-15-14----------------------------|
|----------------------16-----------------16-16p14p13----13-14-------|
|-----------------------------------------------------16-------------|
|--------------------------------------------------------------------|
|--------------------------------------------------------------------|
|--------------------------------------------------------------------|
|----------------------------------14-15-17------------14-15-17------|
|------------13--14-16--13--14-16-----------13--14-16----------------|
|-12--14-16----------------------------------------------------------|
|--------------------------------------------------------------------|
|--------------------------------------------------------------------|
---------
|-----------14-14h16h17-16----~~~------------------------------------|
|-14-15-17-----------------------------------------------------------|
|--------------------------------------------------------------------|
|--------------------------------------------------------------------|
|--------------------------------------------------------------------|
|--------------------------------------------------------------------|

Riff 5


|--------------------------------------------------------------------|
|--------------------------------------------------------------------|
|------------------------------------4-------------------------------|
|---4----4------------4---4----------4----7--6-----------------------|
|---4----4------------4---4----------2----7--6-----------------------|
|-22---22--22222222-22--22--22222222------5--4--4-5-4-5--------------|

PM


|--------------------------------------------------------------------|
|--------------------------------------------------------------------|
|------------------------------------4-------------------------------|
|---4----4------------4---4----------4-------------------------------|
|---4----4------------4---4----------2-------------------------------|
|-22---22--22222222-22--22--22222222---------------------------------|

PM


|--------------------------------------------------------------------|
|--------------------------------------------------------------------|
|--------------------------------------------------------------------|
|---------------------------------------------------4--4----4--4-----|
|---------------------------------------------------4--4----4--4-----|
|-2-2-2-2--2-2-222-2-2-2-2-2-2-2-2--2-2-222-2-2-2-2-2--2----2--2-----|

PM
Ending


|--------------------------------------------------------------------|
|--------------------------------------------------------------------|
|--------------------------------------------------------------------|
|--4--4--------------------------------------------------------------|
|--4--4--------------------------------------------------------------|
|--2--2--------------------------------------------------------------|

Song progression:

Riff 1 x2
Solo 1
Riff 2 x2
Riff 3
Riff 4
Riff 2 x4
Riff 3
Riff 4
Bridge x4
Solo 2
Riff 3
Riff 5
Riff 1 x2
Ending

To play the this songs, including Parallel Minds by Conception by ukulele, the most important basic ukulele chords to learn are C chord, D chord, G chord, and Em chord.
These set you up to play a many of songs, and each of them is easy to learn.

Leave a Reply

Your email address will not be published.