Pelayo by Avalanch Ukulele Chords

Posted on

If you are searching for Pelayo ukulele chords, you’ve visit to the right place.
You can play versatile instrument Pelayo using ukulele or guitar.
This song by Avalanch can also be played by that instruments.
=

Pelayo chords has rhythm and included in Llanto de un héroe (1999) album.
You can also get another musical style, including jazz ukulele chords, country music ukulele chords, pop ukulele chords, world music ukulele chords, and rock ukulele chords here.

Pelayo by Avalanch Ukulele Chords


As recorded by Avalanch
(From the 1999 Album LLANTO DE UN HROE)

Transcribed by secret_sphere

Words and Music by Alberto Rionda

x 7 9 x x x

x 3 5 x x x

x 5 7 x x x

3 5 x x x x

x 2 4 x x x

x 0 2 x x x

Gtr I (Eb Ab Db Gb Bb Eb) – ‘gtr. limpia i’
Gtr II (Eb Ab Db Gb Bb Eb) – ‘gtr. i’
Gtr III (Eb Ab Db Gb Bb Eb) – ‘gtr. ii’
Gtr IV (Eb Ab Db Gb Bb Eb) – ‘gtr. III’
Gtr V (Eb Ab Db Gb Bb Eb) – ‘gtr. limpia ii’

Intro
Q96 1. 2.

[4/4] Gtr I
W E E E E E E E E E E E E E E E E E E E E E E E E


|----------||--------0---------|------------------||-----------------|
|----------||o---------6-------|---------5-------o||-------5---------|
|----------||------7-----7-----|-------7---7------||---------7-------|
|----------||----7---------7---|-----7-------7----||-----7-----7-----|
|----------||o-5-------------5-|---7-----------7-o||---7---------7---|
|----------||------------------|-5----------------||-5-------------5-|

E E E E E E E E E E E E E E E E E E E Q. Q E E E H E


|-------------------|-------------------|---------1---------|---------1--------|
|-------5-6---------|---------6---------|-------1------(1)--|------------------|
|-----7-----7-------|-------7---7-------|---(2)-------------|-------3----------|
|---7---------7-----|---(7)-------7-0-2-|-3-----------------|-----3------------|
|-5-------------(5)-|-5-----------------|-------------------|-(1)----------(1)-|
|-------------------|-------------------|-------------------|------------------|

E E E E E E Q E E E E E E E E


|---------3------------|---------------------|
|-----------3----------|---------1---------3-|
|-------5-----(5)------|-------3-------(5)---|
|---(5)-----------(5)--|---(3)-------5-------|
|-3--------------------|-1---------3---------|
|----------------------|---------------------|



|---------------------|-------------------|
|-----------6---------|---------6---------|
|-----7-(7)---7-------|-------7---7-------|
|---7-----------7-----|---(7)-------7-0-2-|
|-5---------------(5)-|-5-----------------|
|---------------------|-------------------|

E E E Q E Q E E E E E E E E


|---------1---------|---------3-------------|
|-------1----1------|-----------(5)---------|
|---(2)--------(2)--|-------5-------5-------|
|-3-----------------|---(5)-----------(5)---|
|-------------------|-3-------------------3-|
|-------------------|-----------------------|

E E E E E E E E E E E Q. Q


|-------------------|-------------------|
|-------5-6---------|---------1---------|
|-----7-----7-------|-----(3)------(3)--|
|---7---------7-----|---3---------------|
|-5-------------(5)-|-1-----------------|
|-------------------|-------------------|

H.H Q80 Q134

E E E E E E Q [3/4] E E E E E e [4/4] H +H


|--------------------|---------------|-^-8----(8)----|
|---------3h5--------|---------3h5---|-^-8-----------|
|-------5-----(5)----|-------5-----5-|-^-9-----------|
|---(5)-----------5--|---(5)---------|-^10-----------|
|-3------------------|-3-------------|---------------|
|--------------------|---------------|---------------|

Verso
[(E5)]Gtrs II, III[(C/EE5]


PM--------|

S S S S S S S S E. E. E


||-----------------------------|
||o----------------------------|
||-----------------------------|
||--------------------9--10--9-|
||o-5h7--------------7---7--7-|
||--0-(0)-0-0-0-0-0-0-0---0--0-|

1.
PM| PM—-|[(C/EE5]
S S S S S S S S E. E. E W W


|----------------------------|----------|-------||
|----------------------------|----------|------o||
|----------------------------|----------|-------||
|-------------------9--10--9-|-5--------|-4-----||
|-----5h7----------7---7--7-|-3--------|-2----o||
|-0-0-0-(0)-0-0-0-0-0---0--0-|----------|-------||

2.
[(E5)]


PM----| PM----|

W W S S S S S S S S S S S S S S E


|----------|----------|---------------------------------|
|----------|----------|---------------------------------|
|----------|----------|---------------------------------|
|----------|-7--------|---------0h2---------0h2------5--|
|-5--------|-5--------|---------0h2---------0h2------5--|
|-3--------|----------|-0-0-0-0-----0-0-0-0-----0-0-(3)-|

[(E5)]


PM----| PM----|

S S S S S S S S S S S S Q


|------------------------------------|
|------------------------------------|
|------------------------------------|
|---------0h2---------(5)s(7)-(5)----|
|---------0h2----------5s7---5-----|
|-0-0-0-0-----0-0-0-0--3s5---3-----|

$
[(E5)] [(C/EE5]


PM--------|

S S S S S S S S E. E. E


||-----------------------------|
||o----------------------------|
||-----------------------------|
||--------------------9--10--9-|
||o-5h7--------------7---7--7-|
||--0-(0)-0-0-0-0-0-0-0---0--0-|

1.
PM| PM—-|[(C/EE5]
S S S S S S S S E. E. E W W


|----------------------------|----------|-------||
|----------------------------|----------|------o||
|----------------------------|----------|-------||
|-------------------9--10--9-|-5--------|-7-----||
|-----5h7----------7---7--7-|-3--------|-5----o||
|-0-0-0-(0)-0-0-0-0-0---0--0-|----------|-------||

2.
To Coda
[(E5)]


PM----| PM----|

W W S S S S S S S S S S S S S S E


|----------|----------|---------------------------------|
|----------|----------|---------------------------------|
|----------|----------|---------------------------------|
|----------|-7--------|---------0h2---------0h2------5--|
|-5--------|-5--------|---------0h2---------0h2------5--|
|-3--------|----------|-0-0-0-0-----0-0-0-0-----0-0-(3)-|

[(E5)]PM—-| PM|
S S S S S S S S Q Q


|-------------------------|
|-------------------------|
|-------------------------|
|---------0h2-------------|
|---------0h2-----/7--5---|
|-0-0-0-0-----0-0---------|

Pre-Coro
Gtr II
W W H H


||------------------|-------------------|-----------|
||o-----------------|-------------------|-----------|
||------------------|-------------------|-----------|
||--5---------------|-7-----------------|------7----|
||o-3---------------|-5-----------------|-5----5----|
||------------------|-------------------|-3---------|

|
| Gtr III
| H E Q E Q. Q E E E H H


||------------------|------5------------|-----------|
||o------(3)--------|---------5---------|-----------|
||-----------(5)----|-----------(7)-----|-----------|
||--5-------------5-|-7-------------(7)-|------7----|
||o-3---------------|-5-----------------|-5----5----|
||------------------|-------------------|-3---------|

1.
Gtrs II, III
PM| PM| PM
Q E E E E E E E E E E E E E E


|----------------|----------------------||
|----------------|---------------------o||
|----------------|----------------------||
|--------5h7-----|-7---5h7-(7)-(7)------||
|-7------5h7-----|-7---5h7--7---7--7-7-o||
|-5--5-5-----5-5-|---5------5---5--5-5--||

|
| W W


|----------------|----------------------||
|----------------|---------------------o||
|----------------|----------------------||
|----------------|----------------------||
|----------------|---------------------o||
|----------------|----------------------||

2.
Gtr II
W +W


|-----------------------|------------------|
|-----------------------|------------------|
|-----------------------|------------------|
|-----------------------|------------------|
|-2---------------------|-(2)--------------|
|-0---------------------|-(0)--------------|

|
| Gtr III
| ~~~
| Q E E +E E +E E +E Q Q Q a E


|-----------------------|------------------|
|-----------------------|------------------|
|-----------------------|------------------|
|-----------------------|------------------|
|-7--/10-9-(9)-5-(5)-7-|-(7)-3--5--2--2s3-|
|-----------------------|------------------|

Puente
~~ ~~
H +e Q E H +e Q E


|----------------------|-------------------|
|-17----(17)-20b22--20-|-19----(19)S17--15-|
|----------------------|-------------------|
|----------------------|-------------------|
|----------------------|-------------------|
|----------------------|-------------------|

|
| W W


|----------------------|-------------------|
|----------------------|-------------------|
|----------------------|-------------------|
|--5-------------------|--7----------------|
|--3-------------------|--5----------------|
|----------------------|-------------------|

[(E5)] ~~~~


|---3---|

[+H] [+E]


|-------------------------------------------|
|-17-15-------------------------------------|
|---------16-(16)------------(16)----14----|
|-------------------------------------------|
|-------------------------------------------|
|-------------------------------------------|

|


| PM---------------|
| |---3---| |-3--| |-3-| |----3----|

| E S S E E E E E E E E E E


|-------------------------------------------|
|-------------------------------------------|
|-------------------------------------------|
|--------------------------9---7------------|
|--7--7-7--7---7--7-7-10-7--------10-----9--|
|-------------------------------------------|

[(E5)] ~~~~~~~~~~~~~~~~~~~~~~~~~~~~~~~~~~~ ~~
W H +e Q E E H E. E.


|-------------------------------||-15----(15)-20-----19-|-19-17----19--20-----|
|-------------------------------||-17----(17)-20b22--20-|-20-19----20--20b22--|
|-12----------------------------||----------------------|---------------------|
|-------------------------------||----------------------|---------------------|
|-------------------------------||----------------------|---------------------|
|-------------------------------||----------------------|---------------------|

|


| PM----------|
| |--3--| |-3-| |-3-| |-3--|

| E S S E E E E E E E E E E W W


|-------------------------------||----------------------|---------------------|
|-------------------------------||----------------------|---------------------|
|-------------------------------||----------------------|---------------------|
|-------------------------------||--5-------------------|--7------------------|
|--7-7-7-7-7-7-7-10-7-7---------||--3-------------------|--5------------------|
|-----------------------10-7-10-||----------------------|---------------------|

[(E5)] >
~~~~
S S H..


|-19--17-----15-----------------------------------------------|
|-20--19-----17-----------------------------------------------|
|-------------------------------------------------------------|
|-------------------------------------------------------------|
|-------------------------------------------------------------|
|-------------------------------------------------------------|

|


| PM-------------------------|
| |-------3-------| |---3---| |---3----| |----3----|

| E S S E E E E E E E E E E


|------------------------------------------(10)-(8)-----------|
|-(8)----(8)-(8)--(8)-(8)-(8)-(8)-(12)-(8)--12--10--(12)-(10)-|
|--9------9---9----9---9---9---9---12---9------------12---11--|
|--------------------------------------------9---7------------|
|--7------7---7----7---7---7---7---10---7------------10----9--|
|-------------------------------------------------------------|

+W


|----------------------------------------------------------|
|-(17)-----------------------------------------------------|
|----------------------------------------------------------|
|----------------------------------------------------------|
|----------------------------------------------------------|
|----------------------------------------------------------|

|


| PM---------------------|
| |-----3-----| |---3---| |---3---| |---3----|

| E S S E E E E E E E E E E


|----------------------------------------------------------|
|--(8)-(8)-(8)-(8)-(8)-(8)-(8)-(12)-(8)-(8)----------------|
|---9---9---9---9---9---9---9---12---9---9--(11)-(7)-(11)--|
|--------------------------------------------12---9---12---|
|---7---7---7---7---7---7---7---10---7---7-----------------|
|--------------------------------------------10---7---10---|

Gtrs II, III
PM–| PM| PM–| PM| PM| PM
S S E E S S E E S S e E S S E E S S E E E


|-----------------------|---------------------|
|-----------------------|---------------------|
|-----------------------|---------------------|
|-----------------------|---------------------|
|-------2-----2-2-------|-2-----2-2-----2---2-|
|-0-0-0-0-0-0-0-0-0-0-0-|-0-0-0-0-0-0-0-0-0-0-|


PM--| PM| PM----------| PM| PM--|

S S E E S S E E S S e S S E E S S E E S S e


|-----------------------|------------------------|
|-----------------------|------------------------|
|-----------------------|------------------------|
|-----------------------|-------5-----5-5--------|
|-------5-----5-5-------|-3-3-3-3-3-3-3-3-3-3-3--|
|-3-3-3-3-3-3-3-3-3-3-3-|------------------------|

Gtr II
PM–|
E E E Q E E E H H


|----------------|-------------------------------------||
|----------------|-------------------------------------||
|----------------|-------------------------------------||
|-7-----7--7-7-7-|--5--------------7-------------------||
|-5-5-5-5--5-5-5-|--3--------------5-------------------||
|----------------|-------------------------------------||

|
| Gtr III
| W E E E E a E E E E a


|----------------|-------------------------------------||
|----------------|-/8-(8)-8--8--8s10-(10)--10--10--10s||
|----------------|-/9--9--9-(9)-9s11--11--(11)-11-(11)-||
|----------------|-------------------------------------||
|----------------|-------------------------------------||
|----------------|-------------------------------------||

Gtrs II, III
PM–| PM| PM–| PM| PM| PM
S S E E S S E E S S e E S S E E S S E E E


|------------------------|-----------------------|
|------------------------|-----------------------|
|------------------------|-----------------------|
|------------------------|-----------------------|
|--------2-----2-2-------|-2-----2-2-----2---2---|
|--0-0-0-0-0-0-0-0-0-0-0-|-0-0-0-0-0-0-0-0-0-0---|

|
| >
| W W


|------------------------|-----------------------|
|-12---------------------|-----------------------|
|-12---------------------|-----------------------|
|------------------------|-----------------------|
|------------------------|-----------------------|
|------------------------|-----------------------|


PM--| PM| PM----------| PM| PM-----

S S E E S S E E S S e S S E E S S E E S S e


|-----------------------|-----------------------|
|-----------------------|-----------------------|
|-----------------------|-----------------------|
|-----------------------|-------7-----7-7-------|
|-------5-----5-5-------|-5-5-5-5-5-5-5-5-5-5-5-|
|-3-3-3-3-3-3-3-3-3-3-3-|-----------------------|

|
| W W


|-----------------------|-----------------------|
|-----------------------|-----------------------|
|-----------------------|-----------------------|
|-----------------------|-----------------------|
|-----------------------|-----------------------|
|-----------------------|-----------------------|

Gtr II
—–|
E E E Q E E E H H


|------------------|---------------------------------------|
|------------------|---------------------------------------|
|------------------|---------------------------------------|
|-9-----9--9-9--9--|--5-----------------7------------------|
|-7-7-7-7--7-7--7--|--3-----------------5------------------|
|--------------(0)-|---------------------------------------|

|
| Gtr III


| PM------------------------------|
| |--3--| |--3--| |--3--| |--3--|

| W E E E E E E E E E E E E


|------------------|-15-12----------12-17-14----------14---|
|------------------|-17-13-13----13-13-19-15-15----15-15---|
|------------------|-------12-12-12----------14-14-14------|
|------------------|----------14----------------16---------|
|------------------|---------------------------------------|
|------------------|---------------------------------------|

Verso
[(E5)]Gtrs II, III[(C/EE5]


PM--------|

S S S S S S S S E. E. E


||--(15)------------------------|
||o-(12)------------------------|
||------------------------------|
||---------------------9--10--9-|
||o---5h7-------------7---7--7-|
||----0--0-0-0-0-0-0-0-0---0--0-|

W

1.
PM| PM—-|[(C/EE5]
S S S S S S S S E. E. E W W


|----------------------------|----------|-------||
|----------------------------|----------|------o||
|----------------------------|----------|-------||
|-------------------9--10--9-|-5--------|-4-----||
|-----5h7----------7---7--7-|-3--------|-2----o||
|-0-0-0-(0)-0-0-0-0-0---0--0-|----------|-------||

2.
Gtr II
W W


|---------------------|----------------------|
|---------------------|----------------------|
|---------------------|----------------------|
|---------------------|---7------------------|
|--5------------------|---5------------------|
|--3------------------|----------------------|

|
| Gtr III
| Q E Q Q E +H E. E. E


|----------------(22)-|-(22)----/15--14--12--|
|-20--20-15--20---22--|-(22)-----------------|
|-16--19-16--16---19--|-(19)----/16--14--12--|
|---------------------|----------------------|
|---------------------|----------------------|
|---------------------|----------------------|

D.S. al Coda
[(E5)] [(E5)]


PM----| PM----| PM-----| PM----|

S S S S S S S S S S S S S S E S S S S S S S S S S S S Q


|----------------------------------|---------------------------------------|
|----------------------------------|---------------------------------------|
|----------------------------------|---------------------------------------|
|----------0h2---------0h2------5--|------------0h2---------(5)s(7)-(5)----|
|----------0h2---------0h2------5--|------------0h2----------5s7---5-----|
|--0-0-0-0-----0-0-0-0-----0-0-(3)-|---0--0-0-0-----0-0-0-0--3s5---3-----|

|
| >
| ~~
| W +W


|-12-------------------------------|-(12)----------------------------------|
|----------------------------------|---------------------------------------|
|-12-------------------------------|-(12)----------------------------------|
|----------------------------------|---------------------------------------|
|----------------------------------|---------------------------------------|
|----------------------------------|---------------------------------------|

&
[(E5)]Gtrs II, III


PM----| PM----| PM----| PM----| PM----| PM|

S S S S E S S S S E S S S S E S S S S E S S S S E S S


|-----------------------------|----------------------------|
|-----------------------------|----------------------------|
|-----------------------------|----------------------------|
|---------2---------2---------|-2---------2---------2------|
|---------2---------2---------|-2---------2---------2------|
|-0-0-0-0---0-0-0-0---0-0-0-0-|---0-0-0-0---0-0-0-0---0-0--|

Pre-Coro


PM--------------------| PM--------------------------|

E S S S S S S S S S S S S E S S S S S S S S S S S S S S S S


|-----------------------------|---------------------------------|
|-----------------------------|---------------------------------|
|-----------------------------|---------------------------------|
|-5-------------------------5-|---------------------------------|
|-3-3-3-3-3-3-3-3-3-3-3-3-3-3-|-5-5-5-5-5-5-5-5-5-5-5-5-5-5-5-5-|
|-----------------------------|---------------------------------|


PM--------| PM--------|

E S S S S S S E S S S S S S


|------------------------------|
|------------------------------|
|------------------------------|
|---------------7--------------|
|-5-------------5-5-5-5-5-5-5--|
|-3-3-3-3-3-3-3----------------|

Gtr II


PM--------------------------|

E S S S S S S S S S S S S S S


|-----------------------------------|
|-----------------------------------|
|-----------------------------------|
|-----------------------------------|
|-7---------------------------------|
|-5---5-5-5-5-5-5-5-5-5-5-5-5---5-5-|

|
| Gtr III
| H.. E


|-----------------------------/17---|
|-----------------------------------|
|-----------------------------/17---|
|-----------------------------------|
|-----------------------------------|
|-----------------------------------|


PM--------------------|

W E S S S S S S S S S S S S E


|-----------------------------------------||----------------------------------|
|-----------------------------------------||----------------------------------|
|-----------------------------------------||----------------------------------|
|-----------------------------------------||---5--------------------------7---|
|--7--------------------------------------||---3--3-3-3-3-3-3-3-3-3-3-3-3-5---|
|--5--------------------------------------||----------------------------------|

|
| >
| S +S E S +S E E E S +S E W


|-17-(17)s12-12-(12)s15-15-10-10-(10)s12-||--12------------------------------|
|-----------------------------------------||----------------------------------|
|-17-(17)s12-12-(12)-16-16-11-11-(11)-12-||-(12)-----------------------------|
|-----------------------------------------||----------------------------------|
|-----------------------------------------||----------------------------------|
|-----------------------------------------||----------------------------------|

Gtrs II, III


PM------------------------| PM--------| PM--------|

E S S S S S S S S S S S S S S E S S S S S S E S S S S S S


|-------------------------------|-----------------------------|
|-------------------------------|-----------------------------|
|-------------------------------|-----------------------------|
|-7-----------------------------|---------------7-------------|
|-5-5-5-5-5-5-5-5-5-5-5-5-5-5-5-|-5-------------5-5-5-5-5-5-5-|
|-------------------------------|-3-3-3-3-3-3-3---------------|


PM------------------------|

E S S S S S S S S S S S S S S


|--------------------------------|
|--------------------------------|
|--------------------------------|
|--------------------------------|
|-2------------------------------|
|-0-0-0-0-0-0-0-0-0-0-0-0-0-0-0--|

Cambio de Tiempo
Q.129
12/8
Gtr II
W.


|--------------------------------------|
|--------------------------------------|
|--------------------------------------|
|--------------------------------------|
|--2-----------------------------------|
|--0-----------------------------------|

|
| Gtr III
| E E E E E E E E E E E E


|--------14-17-19-15-17----15----------|
|-----17-17-19-20-17-19-19-17-17-19-15-|
|-16--16----------------19----17-19-16-|
|-17-----------------------------------|
|--------------------------------------|
|--------------------------------------|


PM---| PM--| PM PM----------| PM--| PM PM|


||----------------------------|-----------------------------|
||o---------------------------|-----------------------------|
||----------------------------|-----------------------------|
||----------5-------5---5-----|---------7-------7---7-------|
||o--3--3-3-3-3-3-3-3-3-3-3-3-|--5--5-5-5-5-5-5-5-5-5-5-5---|
||----------------------------|-----------------------------|

|
| W. W.


||----------------------------|-----------------------------|
||o-17------------------------|-15--------------------------|
||--17------------------------|-14--------------------------|
||----------------------------|-----------------------------|
||o---------------------------|-----------------------------|
||----------------------------|-----------------------------|

1.,2.,3.
[(Em)]Gtr IV
E S S E W +E
| | | | | |
o / / / / /


PM---------------------|

E S S E E E E E E E E E E


|---------------------------------------------------------|
|---------------------------------------------------------|
|---------------------------------------------------------|
|----------------------------------------9---7------------|
|--7---7---7---7---7---7---7---10---7------------10----9--|
|---------------------------------------------------------|

|
| E S S E E E E E E E E E E


|--------------------------------------(10)-(8)-----------|
|-(8)-(8)-(8)-(8)-(8)-(8)-(8)-(12)-(8)--12--10--(12)-(10)-|
|--9---9---9---9---9---9---9---12---9------------12---11--|
|---------------------------------------------------------|
|---------------------------------------------------------|
|---------------------------------------------------------|

4.
E S S E W +E W.
| | | | | | |
o / / / / / /


PM---------------------|

E S S E E E E E E E E E E 4x W.


|---------------------------------------------------------||---------------------------|
|--------------------------------------------------------o||---------------------------|
|---------------------------------------------------------||---------------------------|
|---------------------------------------------------------||-4-------------------------|
|--7---7---7---7---7---7---7---10---7---7----------------o||-2-------------------------|
|-------------------------------------------10---7---10---||---------------------------|

|


| PM---------------------|

| E S S E E E E E E E E E E 4x E E E E E E E E E E E E


|---------------------------------------------------------||---------------------------|
|-(8)-(8)-(8)-(8)-(8)-(8)-(8)-(12)-(8)-(8)---------------o||---------------------------|
|--9---9---9---9---9---9---9---12---9---9--(11)-(7)-(11)--||---------------------------|
|-------------------------------------------12---9---12---||--------------4-4-4-4-4-4--|
|--------------------------------------------------------o||-3--2-2-2-2-2-2-2-2-2-2-2--|
|---------------------------------------------------------||---------------------------|

+W. W. W.


|---------------------------|------------------------|---------------------|
|---------------------------|------------------------|---------------------|
|---------------------------|------------------------|---------------------|
|-(4)-----------------------|--2---------------------|---------------------|
|-(2)-----------------------|--0---------------------|--2------------------|
|---------------------------|------------------------|--0------------------|

|
| E E E E E E E E E E E E E E E E E E H. E E E E E E H.


|---------------------------|------------------------|-/7--------7---7-----|
|---------------------------|-----8---10---8---------|-------7-----7-------|
|---------------------------|-/9----9----9---9-------|-----9---9-----------|
|--4--4-4-4-4-4-4-4-4-4-4-4-|------------------------|---------------------|
|--2--2-2-2-2-2-2-2-2-2-2-2-|------------------------|---------------------|
|---------------------------|------------------------|---------------------|

W. W. W.


|----------------|---------------------------|---------------------------|
|----------------|---------------------------|---------------------------|
|----------------|---------------------------|---------------------------|
|--4-------------|--4------------------------|-4-------------------------|
|--2-------------|--2------------------------|-2-------------------------|
|----------------|---------------------------|---------------------------|

|
| W. E E E E E E E E E E E E E E E E E E E E E E E E


|-^7-------------|-----7---8---7---7---8---7-|----7---8---7---7---8---7--|
|-^7-------------|-/7----7---7---7---7---7---|-7----7---7---7---7---7----|
|----------------|---------------------------|---------------------------|
|----------------|---------------------------|---------------------------|
|----------------|---------------------------|---------------------------|
|----------------|---------------------------|---------------------------|

Coro
Gtrs II, III


PM------------------| PM------------------|


|-------------------------|-------------------------|
|-------------------------|-------------------------|
|-------------------------|-------------------------|
|-9-----------------------|-9-----------------------|
|-7-7-7-7-7-7-7-7-7-7-7-7-|-7-7-7-7-7-7-7-7-7-7-7-7-|
|-------------------------|-------------------------|


PM------------------| PM------------------|


|-------------------------|----------------------------|
|-------------------------|----------------------------|
|-------------------------|----------------------------|
|-5-----------------------|----------------------------|
|-3-3-3-3-3-3-3-3-3-3-3-3-|-7--------------------------|
|-------------------------|-5-5-5-5-5-5-5-5-5-5-5-5----|

Gtr II


PM------| PM| PM---------------------------|


|-------------------------||------------------------------------|
|-------------------------||------------------------------------|
|-------------------------||------------------------------------|
|-7-----------7-----7-----||---9--------------------------------|
|-5-5-5-5-5-5-5-5-5-5-5-5-||---7-7-7-7---7------7--7-7--7-7-7-7-|
|-------------------------||------------------------------------|

|
| Gtr III
| |-3–|
| W H +E Q q q q


|-------------------------||------------------------------------|
|-------------------------||------------------------------------|
|-------------------------||--/9--------(9)-/12---11----9---7---|
|-------------------------||------------------------------------|
|-------------------------||-/10-------(10)-/14---12---10---9---|
|-------------------------||------------------------------------|
PM---------------------------|


|-------------------------------------|
|-------------------------------------|
|-------------------------------------|
|---9---------------------------------|
|---7-7-7-7---7------7--7-7--7-7-7-7--|
|-------------------------------------|

|
| ~~~
| |-3–|
| H +E Q q q Q


|-------------------------------------|
|-------------------------------------|
|--/9--------(9)-/12---11----9---7----|
|-------------------------------------|
|-/10-------(10)-/14---12---10---9----|
|-------------------------------------|


PM----------------------|


|--------------------------------|
|--------------------------------|
|--------------------------------|
|---5----------------------------|
|---3--3-3-3-3-3---3--3-3--3-3-3-|
|--------------------------------|

|
| ~~~~
| H. +Q. E E E


|--------------------------------|
|----------------------------7-8-|
|--/9-------------(9)------9-----|
|----------------------------7-9-|
|-/10------------(10)-----10-----|
|--------------------------------|


PM---------------------| PM------------|


|-------------------------------|------------------------------|
|-------------------------------|------------------------------|
|-------------------------------|---------------------------4--|
|-------------------------------|----4------------4-4-4-4-4-4--|
|---7---------------------------|----2--2-2-2-2-2-2-2-2-2-2-2--|
|---5--5-5-5-5-5--5--5-5-5--5-5-|------------------------------|

|
| ~~~~ ~~~~~
| H. Q. Q. W.


|-------------------------------|-/(19)------------------------|
|-/10------------10------8------|--/12------------------------|
|-----------------9------7------|--/11------------------------|
|-/10---------------------------|------------------------------|
|-------------------------------|------------------------------|
|-------------------------------|------------------------------|

Solo De Guitarra I
~~~~
E +H +E H. W +H a


|-/17b19(17)----(17)r17-------|----------------------12s|
|-------------------------------|-/17---------(17)-------|
|-------------------------------|-------------------------|
|-------------------------------|-------------------------|
|-------------------------------|-------------------------|
|-------------------------------|-------------------------|

|
| H. H. W.


|-------------------------------|-------------------------|
|-------------------------------|-------------------------|
|-------------------------------|-------------------------|
|---9-------------------7-------|---2---------------------|
|---7-------------------5-------|---0---------------------|
|-------------------------------|-------------------------|

~~~~


|-14--10-10-10-12-12-12----------------|--------------------------------------------|
|-----------------------12-12-12-14-14-|-14h15--14----------------------------------|
|--------------------------------------|-----------14-------------------------------|
|--------------------------------------|--------------/14S12-11-12-11---------------|
|--------------------------------------|------------------------------12------------|
|--------------------------------------|---------------------------------/12-10-9--|

|
| >
| W. +W.


|--------------------------------------|--------------------------------------------|
|--------------------------------------|--------------------------------------------|
|--------------------------------------|--------------------------------------------|
|--4-----------------------------------|----(4)-------------------------------------|
|--2-----------------------------------|----(2)-------------------------------------|
|--------------------------------------|--------------------------------------------|

N.C.


|----3-----|

e e Q +H Q +Q q


|--------------------------------:
|--------------------------------:
|----------------------------:
|------7b8r(7)----9b10-(9)------:
|-7-9---------------------------:
|--------------------------------:

~~~~~ ~
E. Q +E. E Q E E E E E E W +q


|-------------------------------:--------------------|
|-------------------------------:--------------------|
|--------------11---------------:--------------------|
|----9b10--(9)----9b10r7h9-7---:-7------------------|
|-----------------------------9-:---9p7--------(7)--|
|-------------------------------:--------------------|

PM PM PM ~~~~~~~~~~~~
H. E E E E E E E E E E E Q. +H


|----------------------10h|12-------10----12b14---(12)----|
|------------10---12------|----10-10----10-----------------|
|---------/9----9----9----|--------------------------------|
|-------------------------|--------------------------------|
|-------------------------|--------------------------------|
|-------------------------|--------------------------------|

~~~~ ~~~
|-3–|
+Q Q +Q. +E S S S E.. S. +S


|-(12)--12b14(12)---(12)r10-9h10p9---10b12-(10)-|
|--------------------------------------------------|
|--------------------------------------------------|
|--------------------------------------------------|
|--------------------------------------------------|
|--------------------------------------------------|

|
| Gtr III
| W.


|--------------------------------------------------|
|--------------------------------------------------|
|--------------------------------------------------|
|---4----------------------------------------------|
|---2----------------------------------------------|
|--------------------------------------------------|

~~~
Q. +Q E E E E E a E E E E E E E E E E E E E E


|-10----(10)--10-10---------------------|-------------------------------------------|
|-------------------10-10-10-(10)s12-12-|-12----------------------------------------|
|---------------------------------------|-----11-11-11------------------------------|
|---------------------------------------|--------------14-14-14-12-/14-14b15rp12----|
|---------------------------------------|----------------------------------------14-|
|---------------------------------------|-------------------------------------------|

|
| W. W.


|---------------------------------------|-------------------------------------------|
|---------------------------------------|-------------------------------------------|
|---------------------------------------|-------------------------------------------|
|--7------------------------------------|-------------------------------------------|
|--5------------------------------------|--7----------------------------------------|
|---------------------------------------|--5----------------------------------------|

~~~
E +E H +Q H


|-------------------------------|
|-------------------------------|
|-14b16-(14)-/14----(14)-------|
|-------------------------------|
|-------------------------------|
|-------------------------------|

|
| W.


|-------------------------------|
|-------------------------------|
|-------------------------------|
|-------------------------------|
|--4----------------------------|
|--2----------------------------|

~~~~~~~~~


|-----3------|

E +H +E. S S S Q +Q +Q +q W Q W


|-17b19(17)----(17)r14----14------------------|--------------------|------|
|------------------------17----17b19(17)-(17)r|(17)--------------|------|
|-----------------------------------------------|--------------------|------|
|-----------------------------------------------|--------------------|------|
|-----------------------------------------------|--------------------|------|
|-----------------------------------------------|--------------------|------|

|
| W. +Q W Q W


|-----------------------------------------------|--------------------|------|
|-----------------------------------------------|--------------------|------|
|-----------------------------------------------|--------------------|------|
|-----------------------------------------------|--------------------|------|
|--4--------------------------------------------|--(4)--------------|------|
|--2--------------------------------------------|--(2)--------------|------|

Solo Harmonizado
Gtr IV
| | | | | | | | | | | |
/ o / / / / / / / / / /


||--19----------------17-19-20-19-17----|
||o----17-17-20-17-17----------------20-|
||--------------------------------------|
||--------------------------------------|
||o-------------------------------------|
||--------------------------------------|

|
| E E E E E E E E E E E E


||--12-------15-------12-14-15-14-12----|
||o----12-12----12-12----------------15-|
||--------------------------------------|
||--------------------------------------|
||o-------------------------------------|
||--------------------------------------|

E E E E E E E E E E E E W.
| | | | | | | | | | | | |
/ o / / / / / / / / / / /


|-19----------------17-19-20-19-17----|-20--------22-------19-20-22-20-19-17-|
|----17-17-20-17-17----------------20-|-----20-20----20-20-------------------|
|-------------------------------------|--------------------------------------|
|-------------------------------------|--------------------------------------|
|-------------------------------------|--------------------------------------|
|-------------------------------------|--------------------------------------|

|
| E E E E E E E E E E E E E E E E E E E E E E E E


|-12-------15-------12-14-15-14-12----|-12--------15-------12-14-15-14-12----|
|----12-12----12-12----------------15-|-----13-13----13-13----------------15-|
|-------------------------------------|--------------------------------------|
|-------------------------------------|--------------------------------------|
|-------------------------------------|--------------------------------------|
|-------------------------------------|--------------------------------------|

1.
W.
|
[/]


|-14--------17-------14-------19--------||
|-----15-15----15-15----15-15----15-15-o||
|---------------------------------------||
|---------------------------------------||
|--------------------------------------o||
|---------------------------------------||

|
| E E E E E E E E E E E E


|-10--------14-------10-------14--------||
|-----10-10----10-10----10-10----10-10-o||
|---------------------------------------||
|---------------------------------------||
|--------------------------------------o||
|---------------------------------------||

2.
W. W.
| |
[/] [/]


|-19--15----15-17-19-15-------------15-|-22--17----17-19-22-17----------17-19--|
|--------15-------------15----15-17----|--------19-------------19----19--------|
|--------------------------16----------|--------------------------19-----------|
|--------------------------------------|---------------------------------------|
|--------------------------------------|---------------------------------------|
|--------------------------------------|---------------------------------------|

|
| E E E E E E E E E E E E E E E E E E E E E E E E


|-15--10----10-12-15-10----------10-12-|-17--14----14-15-17-14----------14-15--|
|--------12-------------12----12-------|--------15-------------15----15--------|
|--------------------------12----------|--------------------------14-----------|
|--------------------------------------|---------------------------------------|
|--------------------------------------|---------------------------------------|
|--------------------------------------|---------------------------------------|


| | | | | | | | | | | |
/ o / / / / / / / / / /


|-17-15-14----------14-------14-------|
|----------17-16-------16-17----17-16-|
|----------------17-------------------|
|-------------------------------------|
|-------------------------------------|
|-------------------------------------|

|
| E E E E E E E E E E E E


|-14----------------------------------|
|----17-16----------16-------16-------|
|----------17-16-14----16-17----17-16-|
|-------------------------------------|
|-------------------------------------|
|-------------------------------------|


| | | | | | | | | | | |
/ o / / / / / / / / / /

E E E E E E S S S S S S S S S S S S


|-------------------14-------------------------------14-|
|-17-16----------------17-16-------------------16-17----|
|-------17-16-14-------------17-16----14-16-17----------|
|----------------17----------------17-------------------|
|-------------------------------------------------------|
|--------------------------------------

To play the this songs, including Pelayo by Avalanch by ukulele, the most important basic ukulele chords to learn are C chord, D chord, G chord, and Em chord.
These set you up to play a a lot of songs, and each of them is easy to learn.

Gravatar Image
Like to play Ukulele and Sudoku Game

Leave a Reply

Your email address will not be published. Required fields are marked *