Pinball Map by In Flames Ukulele Chords

Posted on

If you are looking for Pinball Map ukulele chords, you’ve visit to the best site.
You can play versatile instrument Pinball Map using ukulele or guitar.
This song by In Flames can also be played by that instruments.
=

Pinball Map chords has rhythm and included in Clayman (2000) album.
You can also find other musical style, including jazz ukulele chords, country music ukulele chords, pop ukulele chords, world music ukulele chords, and rock ukulele chords here.

Pinball Map by In Flames Ukulele Chords


#
#In Flames – Pinball Map
#Tabbed By: Berndsworld@gmx.de
#Sunmitted by: himmelfarht
#Email: this_is_the_prophecy@hotmail.com
#
#Tuning: Not really sure about this, but try standard c
#
#m palm muted
#h
#^ hammer on
#/ slide
#x string muted by left hand
#. staccato
#~~~~ thrill
#f full bend
#fr full bend release
#
#Riff 1:
#
#git 1
# __1,3_____ ____2_____ _________4__________
# | | |
#


|--------------|----------|----------|--------------------|

#


|--------------|----------|----------|--------------------|

#


|--------------|----------|----------|--------------------|

#


|----3-1-3-1---|-3-3--4-4-|-4-4--6-6-|-1-1--6-6-----------|

#


|-1----------3-|-3-3--4-4-|-4-4--6-6-|-1-1--6-6--2-2--4-4-|

#


|-1------------|-1-1--2-2-|-2-2--4-4-|------4-4--2-2--4-4-|

#| |
#git 2 |
#| ___1,3____ ____2_____ _________4__________|
#| | | |
#


|--------------|----------|----------|--------------------|

#


|--------------|----------|----------|--------------------|

#


|--------------|-1-1--3-3-|----------|--------------------|

#


|--------------|-3-3--4-4-|-4--3-----|-4--3---------------|

#


|-1--4-3-4-3-1-|----------|-----4-6--|-----4-6--6--4------|

#


|-1------------|----------|----------|--------------2-4---|

#
#
#Riff 2:
#
#git 1 + 2
#
# _______________3,7__________
# |
#


|-----------------------------|----------------------------|

#


|-----------------------------|----------------------------|

#


|-----------------------------|----------------------------|

#


|-----------------------------|----------------------------|

#


|-1-1-1-1---1-1-1--1-1--1-1-1-|-6-6-6-6---6-6-6--6-6--6-6-6|

#


|-1-1-1-1---1-1-1--1-1--1-1-1-|-4-4-4-4---4-4-4--4-4--4-4-4|

Riff 3:


|-----------------------------------------------------------------------|
|-----------------------------------------------------------------------|
|-----------------------------------------------------------------------|
|---------h---4-----h---------1--3-4--3-1-3--------------h---4-----h----|
|------4-3^4-----4-3^4-4-1-4-----------------4-3------4-3^4-----4-3^4-4-|
|-2--2-------2--2--------1-----------------------2--2-------2--2--------|

| m m m m m m |
git 2 |
| |


|-----------------------------------------------------------------------|
|-----------------------------------------------------------------------|
|-----------------------------------------------------------------------|
|---------h---4-----h--------------1---------------------h---4-----h----|
|------4-3^4-----4-3^4-4-1-1--3--4----4-3-4--1--------4-3^4-----4-3^4-4-|
|-2--2-------2--2--------1---------------------4-2--2-------2--2--------|


Riff 4a:

git 1 + 2


|---------------------------------|
|---------------------------------|
|---------------------------------|
|---------------------------------|
|-1---1-1-1---1-1-1---1-1-1---1-1-|
|-1---1-1-1---1-1-1---1-1-1---1-1-|


Riff 4b:


|--------------|
|--------------|
|--------------|
|-3------------|
|-3------------|
|-1------------|

l

Riff 5:

gitz 1


|----------------------------------------------------------------|
|----------------------------------------------------------------|
|------------------------------------3---------------------------|
|--------6--6-6-6-8------------3----------------6--6-6-6--4-6-8--|
|-4---44-6--6-6-6-8-1-1-1--1-1---1-1----4---4-4-6--6-6-6--4-6-8--|
|-4---44-4--4-4-4-6-1-1-1--1-1---1-1----4---4-4-4--4-4-4--2-4-6--|

| m m m m m m m |
| |
git 2 |
| |


|----------------------------------------------------------------|
|------------------------------------4---------------------------|
|------------------------------3---------------------------------|
|--------6--6-6-6-8-----------------------------6--6-6-6--4-6-8--|
|-4---44-6--6-6-6-8-1-1-1--1-1---1-1----4---4-4-6--6-6-6--4-6-8--|
|-4---44-4--4-4-4-6-1-1-1--1-1---1-1----4---4-4-4--4-4-4--2-4-6--|


Riff 6:

git 3


|------------------------------------|E
|------------------------------------|B
|-10-----1010--8----------6--6--8-10-|G

| |
git 4 |
| |


|-11--11-10-8-10--10-8----8--8-10-11-|D
|----------------------11------------|A
|------------------------------------|E

| |
git 1 + 2 |
| |


|------------------------------------|
|------------------------------------|
|------------------------------------|
|-----------6--6-6-6-6--4-4--4--6--8-|
|--4---4-4--6--6-6-6-6--4-4--4--6--8-|
|--4---4-4--4--4-4-4-4--2-2--2--4--6-|

Riff 7a:

git 1


|-----------------------------------------------------------------------------|
|-----------------------------------------------------------------------------|
|-----------------------------------------------------------------------------|
|---------------3---------1----1----------------3----4-3-4--3---3-------------|
|-1--1-1-1-1-/4---4-x-1-x-1--3---3~~~~-1-1-1-/4---4-----------6----6-4-6--4-3-|
|-1--1-1-1-1--------x-2-x--------------1-1-1----------------------------------|

| m m m m m m m |
| |
git 2 |
| |


|-----------------------------------------------------------------------------|
|-----------------------------------------------------------------------------|
|-----------------------------------------------------------------------------|
|----------------------------------------------------8-6-8--6---6-------------|
|----------------------------------------1--------------------9----9-8-9--8-6-|
|----------------------------------------1------------------------------------|

.

Riff 7b:


|-----------------------------------------------------------------------------|
|-----------------------------------------------------------------------------|
|-----------------------------------------------------------------------------|
|---------------3---------1----1----------------3----4-3-4--3---3-------------|
|-1--1-1-1-1-/4---4-x-1-x-1--3---3-1-1-1-1-1-/4---4-----------6----6-4-6--4-3-|
|-1--1-1-1-1--------x-2-x----------1-1-1-1-1----------------------------------|

| m m m m m m m m m |
| |
git 2 |
| |


|-----------------------------------------------------------------------------|
|-----------------------------------------------------------------------------|
|-----------------------------------------------------------------------------|
|-------------------------1--------------------------8-6-8--6---6-------------|
|---------------4---x-1-x-1----3---1-1-1-1-1----4-------------9----9-8-9--8-6-|
|-1--1-1-1-1-/6---6-x-2-x----4---4-1-1-1-1-1-/6---6---------------------------|


Riff 8:


|-----------------------------------|-------------------------|
|-----------------------------------|-------------------------|
|-----------------------------------|-------------------------|
|-------------------------------1---|-4-3-4--3---3------------|
|-1-1-1-1-1-1-1-1-1-1-1-1-1-1-3---3-|----------6----6-4-6--4-3|
|-1-1-1-1-1-1-1-1-1-1-1-1-1-1-------|-------------------------|

| m m m m m m m m m m m m m m |
| |
git 2 |
| |


|-----------------------------------|-------------------------|
|-----------------------------------|-------------------------|
|-----------------------------------|-------------------------|
|-----------------------------------|-8-6-8--6---6------------|
|-1-1-1-1-1-1-1-1-1-1-1-1-1-1---3---|----------9----9-8-9--8-6|
|-1-1-1-1-1-1-1-1-1-1-1-1-1-1-4---4-|-------------------------|

Riff 9:

git 1


|---------------------------------------|
|---------------------------------------|
|---------------------------------------|
|---------------------------------------|
|-1---1---1---1---1---1---1---1-----3---|
|-1---1---1---1---1---1---1---1---4---4-|

| |
git 2 |
| |


|---------------------------------------|
|---------------------------------------|
|---------------------------------------|
|-----------------------------------1---|
|---1---1---1---1---1---1---1---1-3---3-|
|---1---1---1---1---1---1---1---1-------|

Riff 10:

git 1


|------------------------------------------|
|------------------------------------------|
|------------------------------------------|
|-----------------4-3-4--3---3-------------|
|-x-1-x-1-x-1-x-1----------6----6-4-6--4-3-|
|-x-1-x-1-x-1-x-1--------------------------|

| |
git 2 |
| |


|------------------------------------------|
|------------------------------------------|
|------------------------------------------|
|-----------------8-6-8--6---6-------------|
|-x-1-x-1-x-1-x-1----------9----9-8-9--8-6-|
|-x-1-x-1-x-1-x-1--------------------------|

Solo:

git 1
p


|---------------------------------8-9-8-9^8---------------------------------f11~~-11~~|
|-----------------------------f9------------f9--fr9----p---h----h-h--f9~-f9-----------|
|-/10~~-8~----8-10-8----8----------------------------9^8-8^10-8^9^10------------------|
|----------11--------11---8-----------------------------------------------------------|
|-------------------------------------------------------------------------------------|
|-------------------------------------------------------------------------------------|

h h h h


|-9-11-13-14-16-f16~~-13^16--13^16--13-16^20--16^20--16-16----------------------|
|--------------------------16-----16--------18-----18------19-18-16-------------|
|-------------------------------------------------------------------18-17-15----|
|-------------------------------------------------------------------------------|
|-------------------------------------------------------------------------------|
|-------------------------------------------------------------------------------|

git 2


|-----------------------------------------------------------------|
|-----------------------------------------------------------------|
|-----------------------------------------------------------------|
|---------6-6-6-6-------------------------------------------------|
|-4-4-4-4-4-4-4-4-1-1-1-1-1-1-1-1-1-1-4-4-4-4-6-6-6-6-4-4-6-6-8-8-|
|-4-4-4-4---------1-1-1-1-1-1-1-1-1-1-4-4-4-4-4-4-4-4-2-2-4-4-6-6-|


listen to the song for correct timings!

To play the most songs, including Pinball Map by In Flames by ukulele, the most crucial basic ukulele chords to learn are C chord, D chord, G chord, and Em chord.
These set you up to play a a lot of songs, and each of them is easy to master.

Leave a Reply

Your email address will not be published.