Please Shut Off the Lights by Knapsack Ukulele Chords

Posted on

If you are searching for Please Shut Off the Lights ukulele chords, you’ve visit to the best site.
You can play versatile instrument Please Shut Off the Lights using ukulele or guitar.
This song by Knapsack can also be played by that instruments.
=

Please Shut Off the Lights chords has rhythm and included in This Conversation is Ending Starting Right Now (1998) album.
You can also find another musical style, including jazz ukulele chords, country music ukulele chords, pop ukulele chords, world music ukulele chords, and rock ukulele chords here.

Please Shut Off the Lights by Knapsack Ukulele Chords

Tunning: Standard
x – mute string with playing hand not strumming hand
– slide
h – hammer-on
p – pull-off

[Guitar 1]


E-----------------------------------------------------------
B-----------------------------------------------------------
G-7-7-xx-7-7-xx-7-7-x'5-5-5-5-5-----------------------------
D-7-7-xx-7-7-xx-7-7-x'5-5-5-5-5-5-5-xx-5-5-xx-5-5-xx-5-5-xx-
A-5-5-xx-5-5-xx-5-5-x'7-7-7-7-7-5-5-xx-5-5-xx-5-5-xx-5-5-xx-
E-------------------------------7-7-xx-7-7-xx-7-7-xx-7-7-xx-


E----------------------------------------------------------
B----------------------------------------------------------
G----------------------7-7-7-7-----------------------------
D-5-5-xx-5-5-xx-5-5-xx'7-7-7-7'7-7-xx-7-7-xx-7-7-xx-7-7-xx-
A-5-5-xx-5-5-xx-5-5-xx'5-5-5-5'7-7-xx-7-7-xx-7-7-xx-7-7-xx-
E-3-3-xx-3-3-xx-3-3-xx---------5-5-xx-5-5-xx-5-5-xx-5-5-xx-

[Guitar 1]


E-----------------------------------------------------------
B-----------------------------------------------------------
G-7-7-xx-7-7-xx-7-7-x'5-5-5-5-5-----------------------------
D-7-7-xx-7-7-xx-7-7-x'5-5-5-5-5-5-5-xx-5-5-xx-5-5-xx-5-5-xx-
A-5-5-xx-5-5-xx-5-5-x'7-7-7-7-7-5-5-xx-5-5-xx-5-5-xx-5-5-xx-
E-------------------------------7-7-xx-7-7-xx-7-7-xx-7-7-xx-


E----------------------------------------------------------
B----------------------------------------------------------
G----------------------7-7-7-7-----------------------------
D-5-5-xx-5-5-xx-5-5-xx'7-7-7-7'7-7-xx-7-7-xx-7-7-xx-7-7-xx-
A-5-5-xx-5-5-xx-5-5-xx'5-5-5-5'7-7-xx-7-7-xx-7-7-xx-7-7-xx-
E-3-3-xx-3-3-xx-3-3-xx---------5-5-xx-5-5-xx-5-5-xx-5-5-xx-

[Guitar 2]


E-----------------------
B-----------------------
G-9-9--11'11--9-9--7-7-
D-----------------------
A-----------------------
E-----------------------

[Guitar 1]


E---------------------------------------------------------
B---------------------------------------------------------
G-9-9-9-xx--------------------9-9-9-xx--------------------
D-9-9-9-xx'9-9-9-xx--55555555'9-9-9-xx-9-9-9-xx--55555555-
A-7-7-7-xx'9-9-9-xx--55555555'7-7-7-xx-9-9-9-xx--55555555-
E----------7-7-7-xx--33333333----------7-7-7-xx--33333333-

[Guitar 2]


E----------------------------
B----------------------------
G----------------------------
D-4h5p4h7-5p4-4--4h5p4h7-5p4-
A--------------------------5-
E----------------------------

[Guitar 1]


E------------------------------------------------
B------------------------------------------------
G-9-9-9-xx---------------------------------------
D-9-9-9-xx'-11-11-11-xx--12-12-12-12-12-12-12-12-
A-7-7-7-xx'-9--9--9--xx--12-12-12-12-12-12-12-12-
E------------------------10-10-10-10-10-10-10-10-

[INTERLUDE]


E-----------------
B-----------------
G-----------------
D-----0-------0--- X4
A---0---0---0---0-
E-3-------3-------


E-----------------------------------------------------------
B-----------------------------------------------------------
G-7-7-7-xx--9-9-9-xx----------------------4-4-4-xx--7-7-7-xx
D-7-7-7-xx--9-9-9-xx--4-4-4-xx--5-5-5-xx--4-4-4-xx--7-7-7-xx
A-5-5-5-xx--7-7-7-xx--4-4-4-xx--5-5-5-xx--2-2-2-xx--5-5-5-xx
E---------------------2-2-2-xx--3-3-3-xx--------------------
E---------------------------------------------------------
B---------------------------------------------------------
G------------------7-7-7-xx--9-9-9-xx---------------------
D-5-5-5-x-x-5-5-5--7-7-7-xx--9-9-9-xx--4-4-4-xx--5-5-5-xx-
A-5-5-5-x-x-5-5-5--5-5-5-xx--7-7-7-xx--4-4-4-xx--5-5-5-xx-
E-3-3-3-x-x-3-3-3----------------------2-2-2-xx--3-3-3-xx-
E-----------------------
B-----------------------
G-4-4-4-xx--9-9-9-xx--7-
D-4-4-4-xx--9-9-9-xx--7-[Let last chord Ring]
A-2-2-2-xx--7-7-7-xx--5-
E-----------------------


Verse
Chorus
Interlude
Verse
Chorus
Interlude
Outro

It wraps around the cord for him
Said I’m wasting, sinking
Soaking in to bones and cartilage
Crossing out the quarter where he lives

So I have arrived
Know this nothing gets me nowhere
Know I am larger than this lie
Our generations

I have only one regret
At the moment I forget
Any takers on this life
And if you’re the last one left
This is my request
Could you just shut off the lights

Take a sample and let it testify
Drowning endless estimation anger of my life
Terrorized to the ending of my end
Everything is absent is nothing I can give

So I have arrived
Know this nothing gets me nowhere
Know I am larger than this lie
Our generations

I have only one regret
At the moment I forget
Any takers on this life
And if you’re the last one left
This is my request
Could you just shut off the lights

To play the this songs, including Please Shut Off the Lights by Knapsack by ukulele, the most crucial basic ukulele chords to learn are C chord, D chord, G chord, and Em chord.
These set you up to play a ton of songs, and each of them is easy to learn.

Leave a Reply

Your email address will not be published.