Poison by My American Heart Ukulele Chords

Posted on

If you are looking for Poison ukulele chords, you have come to the best site.
You can play versatile instrument Poison using ukulele or guitar.
This song by My American Heart can also be played by that instruments.
=

Poison chords has rhythm and included in The Meaning in Makeup (2005) album.
You can also get another musical genres, including jazz ukulele chords, country music ukulele chords, pop ukulele chords, world music ukulele chords, and rock ukulele chords here.

Poison by My American Heart Ukulele Chords


i take no credit whatsoever.

jesse
E E E E Q Q W


D#||-------------------------------|-------------------|
A#||-------------------------------|-------------------|
F#||--------------------10----9----|--L----------------|
C#||-------------------------------|-------------------|
G#||--12p--10--12p--10-------------|-------------------|
C#||-------------------------------|-------------------|

Q Q Q Q Q Q Q Q


-------------------------|------------------------------|
-------------------------|------------------------------|
--------------10----9----|------------------------------|
-------------------------|--10--------------------------|
--10----12---------------|--------12----(12)----(12)----|
-------------------------|------------------------------|

E E E E Q Q W Q Q Q Q


-------------------------------|-------------------|-------------------------|
-------------------------------|-------------------|-------------------------|
--------------------10----9----|--L----------------|--------------10----9----|
-------------------------------|-------------------|-------------------------|
--12p--10--12p--10-------------|-------------------|--10----12---------------|
-------------------------------|-------------------|-------------------------|

Q Q Q Q E E E E Q Q


------------------------------|-------------------------------|
------------------------------|-------------------------------|
------------------------------|--------------------10----9----|
--10--------------------------|-------------------------------|
--------12----(12)----(12)----|--12p--10--12p--10-------------|
------------------------------|-------------------------------|

W Q Q Q Q Q Q Q Q


-------------------|-------------------------|------------------------------|
-------------------|-------------------------|------------------------------|
--L----------------|--------------10----9----|------------------------------|
-------------------|-------------------------|--10--------------------------|
-------------------|--10----12---------------|--------12----(12)----(12)----|
-------------------|-------------------------|------------------------------|

E E E E Q Q W Q Q Q Q


-------------------------------|-------------------|-------------------------|
-------------------------------|-------------------|-------------------------|
--------------------10----9----|--L----------------|--------------10----9----|
-------------------------------|-------------------|-------------------------|
--12p--10--12p--10-------------|-------------------|--10----12---------------|
-------------------------------|-------------------|-------------------------|

PM PM PM
Q Q Q Q E E E E E E E E


------------------------------|--------------------------------|
------------------------------|--------------------------------|
------------------------------|--------------------------------|
--10--------------------------|--------10p--0--12p--0-----10h--|
--------12----(12)----(12)----|--0--0------------------0-------|
------------------------------|--0--0------------------0-------|

PM PM PM
E E E E E E Q E E E E E E E E


---------------------------|--------------------------------|
---------------------------|--------------------------------|
---------------------------|--------------------------------|
--0-----12p--0-------------|--------10p--0--12p--0-----10h--|
----------------5--0--3----|--0--0------------------0-------|
----------------5--0--3----|--0--0------------------0-------|

PM PM PM
E E E E E E Q E E E E E E E E


---------------------------|--------------------------------|
---------------------------|--------------------------------|
---------------------------|--------------------------------|
--0-----12p--0-------------|--------10p--0--12p--0-----10h--|
----------------5--0--3----|--0--0------------------0-------|
----------------5--0--3----|--0--0------------------0-------|

PM PM PM
E E E E E E Q E E E E E E E E


---------------------------|--------------------------------|
---------------------------|--------------------------------|
---------------------------|--------------------------------|
--0-----12p--0-------------|--------10p--0--12p--0-----10h--|
----------------5--0--3----|--0--0------------------0-------|
----------------5--0--3----|--0--0------------------0-------|

PM PM PM
E E E E E E Q E E E E E E E E


---------------------------|--------------------------------|
---------------------------|--------------------------------|
---------------------------|--------------------------------|
--0-----12p--0-------------|--------10p--0--12p--0-----10h--|
----------------5--0--3----|--0--0------------------0-------|
----------------5--0--3----|--0--0------------------0-------|

PM PM PM
E E E E E E Q E E E E E E E E


---------------------------|--------------------------------|
---------------------------|--------------------------------|
---------------------------|--------------------------------|
--0-----12p--0-------------|--------10p--0--12p--0-----10h--|
----------------5--0--3----|--0--0------------------0-------|
----------------5--0--3----|--0--0------------------0-------|

PM PM PM
E E E E E E Q E E E E E E E E


---------------------------|--------------------------------|
---------------------------|--------------------------------|
---------------------------|--------------------------------|
--0-----12p--0-------------|--------10p--0--12p--0-----10h--|
----------------5--0--3----|--0--0------------------0-------|
----------------5--0--3----|--0--0------------------0-------|

PM PM PM
E E E E E E Q E E E E E E E E


---------------------------|--------------------------------|
---------------------------|--------------------------------|
---------------------------|--------------------------------|
--0-----12p--0-------------|--------10p--0--12p--0-----10h--|
----------------5--0--3----|--0--0------------------0-------|
----------------5--0--3----|--0--0------------------0-------|

E E E E E E Q Q E E E E E E


---------------------------|----------------------------|
---------------------------|----------------------------|
---------------------------|----------------------------|
--0-----12p--0-------------|----------------------------|
----------------5--0--3----|-------3p--0--5p--0-----3h--|
----------------5--0--3----|----------------------------|

E E E E E E E E Q E E E E E E


-----------------------------|----------------------------|
-----------------------------|----------------------------|
-----------------------------|----------------------------|
-----------------------------|----------------------------|
--0-----5p--0--3s--5--5p--0--|-------3p--0--5p--0-----3h--|
-----------------------------|----------------------------|

E E E E E E E E Q E E E E E E


-----------------------------|----------------------------|
-----------------------------|----------------------------|
-----------------------------|----------------------------|
-----------------------------|----------------------------|
--0-----5p--0--3s--5--5p--0--|-------3p--0--5p--0-----3h--|
-----------------------------|----------------------------|

PM PM PM PM


-----------------------------|-----------------------|
-----------------------------|-----------------------|
-----------------------------|-----------------------|
-----------------------------|-----------------------|
--0-----5p--0--3s--5--5p--0--|--5--5--5--5--5--5--5--|
-----------------------------|-----------------------|

PM PM PM PM
E E E E E E E E Q E E E E E E E


----------------------------------|--------------------------|
----------------------------------|--------------------------|
--------------------10-----10----|--------------------------|
----------------------------------|--------------------------|
--5--5--5--5--5--5---8------8----|-----3p--0--5p--0-----3h--|
----------------------------------|--------------------------|

E E E E E E E E Q E E E E E E


-----------------------------|----------------------------|
-----------------------------|----------------------------|
-----------------------------|----------------------------|
-----------------------------|----------------------------|
--0-----5p--0--3s--5--5p--0--|-------3p--0--5p--0-----3h--|
-----------------------------|----------------------------|

E E E E E E E E Q E E E E E E


-----------------------------|----------------------------|
-----------------------------|----------------------------|
-----------------------------|----------------------------|
-----------------------------|----------------------------|
--0-----5p--0--3s--5--5p--0--|-------3p--0--5p--0-----3h--|
-----------------------------|----------------------------|

PM PM PM PM PM PM PM PM


-----------------------------|--------------------------|
-----------------------------|--------------------------|
-----------------------------|--------------------------|
-----------------------------|--------------------------|
--0-----5p--0--3s--5--5p--0--|--5--5--5--5--5--5--5--5--|
-----------------------------|--------------------------|

E E E E E E E E W H E E E


--------------------------|-------------------|-----------------------|
--------------------------|-------------------|-----------------------|
--------------------------|-------------------|-----------------------|
--------------------------|-------------------|-----------10--10--10--|
--8--8--8--8--7--7--7--7--|-------------------|-----------10--10--10--|
--------------------------|-------------------|-----------10--10--10--|

PM
Q E Q Q E Q E Q Q E Q E Q Q E


-----------------------|-----------------------|---------------------------|
-----------------------|-----------------------|---------------------------|
-----------------------|-----------------------|---------------------------|
--0----0--0----0----0--|--3----3--3----3----3--|--10----10--10---------10--|
--0----0--0----0----0--|--3----3--3----3----3--|---8-----8---8----0-----8--|
--0----0--0----0----0--|--3----3--3----3----3--|---8-----8---8----0-----8--|

PM PM
E Q E E E E E Q E Q Q E


------------------------------|-----------------------|
------------------------------|-----------------------|
------------------------------|-----------------------|
---L--10----------10--10--10--|--0----0--0----0----0--|
---L---8----0--0---8---8---8--|--0----0--0----0----0--|
---L---8----0--0---8---8---8--|--0----0--0----0----0--|

PM PM PM PM PM
Q E Q E E E E E E E E E E E E


---------------------------|--------------------------|
---------------------------|--------------------------|
---------------------------|--------------------------|
--3----3--3----3--3--3--3--|--8--------7--------8-----|
--3----3--3----3--3--3--3--|--8--8--8--8--8--8--8--8--|
--3----3--3----3--3--3--3--|--8--8--8--7--7--7--8--8--|

PM PM PM
E E E E E E E S S E E E E E E E


-----------------------------|--------------------------------------|
-----------------------------|--10h-11p-10--------------------------|
-----------------------------|--------------12--10------10----------|
-----10----------10--10--10--|----------------------12------12--10--|
--8--10--10--10--10--10--10--|--------------------------------------|
--8--10--10--10--10--10--10--|--------------------------------------|

Q E E E E E E Q E E E E E E


----------------------------------|---------------------------|
----------------------------------|---------------------------|
--12br----10--------------10------|----------10--------10-----|
--------------12--10--12------12--|--7----8------7--8------7--|
----------------------------------|---------------------------|
----------------------------------|---------------------------|

E E E E E E E E S S E E E E E E E


---------------------13----------|--------------------------------------|
-------------10--11------11--10--|--10h-11p-10--------------------------|
-----10--12----------------------|--------------12--10------10----------|
--8------------------------------|----------------------12------12--10--|
---------------------------------|--------------------------------------|
---------------------------------|--------------------------------------|

Q E E E E E Q E E E E E E E E


------------------------------------|----------13----------13----------|
------------------------------------|--10--11------10--11------10--11--|
--12br----10--------------10--------|----------------------------------|
--------------12--10--12------12----|----------------------------------|
------------------------------------|----------------------------------|
------------------------------------|----------------------------------|

PM PM PM
E E E E E E Q E E E E E E E E


--13-------------------------|--------------------------------|
-----------------------------|--------------------------------|
------------10--------10----|--------------------------------|
------7--8------7--8---------|--------10p--0--12p--0-----10h--|
-----------------------------|--0--0------------------0-------|
-----------------------------|--0--0------------------0-------|

PM PM PM
E E E E E E Q E E E E E E E E


---------------------------|--------------------------------|
---------------------------|--------------------------------|
---------------------------|--------------------------------|
--0-----12p--0-------------|--------10p--0--12p--0-----10h--|
----------------5--0--3----|--0--0------------------0-------|
----------------5--0--3----|--0--0------------------0-------|

PM PM PM
E E E E E E Q E E E E E E E E


---------------------------|--------------------------------|
---------------------------|--------------------------------|
---------------------------|--------------------------------|
--0-----12p--0-------------|--------10p--0--12p--0-----10h--|
----------------5--0--3----|--0--0------------------0-------|
----------------5--0--3----|--0--0------------------0-------|

PM PM PM
E E E E E E Q E E E E E E E E


---------------------------|------------------------------|
---------------------------|------------------------------|
---------------------------|------------------------------|
--0-----12p--0-------------|--------10p--0--12p--0-----0--|
----------------5--0--3----|--0--0------------------0--0--|
----------------5--0--3----|--0--0------------------0--0--|

E E E E E E E E W H Q Q


--------------------------------|-------------------|-------------------------|
--------------------------------|-------------------|-------------------------|
--------------------------------|-------------------|-------------------------|
-----10--12--0----------10--12--|--L----------------|-------------------------|
----------------10--12----------|-------------------|--/12---------L----10----|
--------------------------------|-------------------|-------------------------|

Q Q H H Q E E E E Q H


-----------------------|------------------------|-------------------------|
-----------------------|------------------------|-------------------------|
--------10----9--------|-----------L------------|----------10----9--------|
-----------------------|------------------------|-------------------------|
--12-------------------|----------------12--10--|--12--10-----------------|
-----------------------|------------------------|-------------------------|

H Q Q Q Q Q Q


----------------------|-------------------------|
----------------------|-------------------------|
-----------L----------|--------10----9----------|
----------------------|-------------------10----|
----------------10----|--12---------------------|
----------------------|-------------------------|

Q Q E E E E E E Q Q Q E


----------------------------------|------------------------------------|
----------------------------------|------------------------------------|
----------------------------------|------------------------------------|
----------------------------------|------------------------------------|
--12----12----12--10--12--10--12--|---L--(12)----(12)----(12)----(12)--|
----------------------------------|------------------------------------|

E Q Q Q Q Q H H Q E E


----------------------------|-----------------------|------------------------|
----------------------------|-----------------------|------------------------|
----------------------------|--------10----9--------|-----------L------------|
----------------------------|-----------------------|------------------------|
---L--(12)----(12)----10----|--12-------------------|----------------12--10--|
----------------------------|-----------------------|------------------------|

E E Q H H Q Q Q Q Q Q


-------------------------|----------------------|-------------------------|
-------------------------|----------------------|-------------------------|
----------10----9--------|-----------L----------|--------10----9----------|
-------------------------|----------------------|-------------------10----|
--12--10-----------------|----------------10----|--12---------------------|
-------------------------|----------------------|-------------------------|

Q Q Q E Q E Q E E E


------------------------------|------------------------|
------------------------------|------------------------|
------------------------------|--7----7--7----7--7--7--|
------------------------------|------------------------|
--12----(12)----(12)----(12)--|--5----5--5----5--5--5--|
------------------------------|------------------------|

E E E Q E E E Q E Q E E E


-------------------------|------------------------------|
-------------------------|------------------------------|
--L--7--7--7----7--7--7--|--10----10--10----10--10--10--|
-------------------------|------------------------------|
--L--5--5--5----5--5--5--|---8-----8---8-----8---8---8--|
-------------------------|------------------------------|

E E E Q E E E Q E Q E E E


-------------------------------|------------------------|
-------------------------------|------------------------|
--L--10--10--10----10--10--10--|--7----7--7----7--7--7--|
-------------------------------|------------------------|
--L---8---8---8-----8---8---8--|--5----5--5----5--5--5--|
-------------------------------|------------------------|

E E E Q E E E Q E E E E E E E


-------------------------|------------------------------------|
-------------------------|------------------------------------|
--L--7--7--7----7--7--7--|--10----10--10--10--10--10--10--10--|
-------------------------|------------------------------------|
--L--5--5--5----5--5--5--|---8-----8---8---8---8---8---8---8--|
-------------------------|------------------------------------|

E E E E E E E Q E Q Q E Q E Q Q E


-----------------------------|-----------------------|-----------------------|
-----------------------------|-----------------------|-----------------------|
--12--12--12--12--12--12-----|-----------------------|-----------------------|
-----------------------------|--0----0--0----0----0--|--3----3--3----3----3--|
--10--10--10--10--10--10-----|--0----0--0----0----0--|--3----3--3----3----3--|
-----------------------------|--0----0--0----0----0--|--3----3--3----3----3--|

PM PM PM
Q E Q Q E E Q E E E E E


---------------------------|------------------------------|
---------------------------|------------------------------|
---------------------------|------------------------------|
--10----10--10---------10--|---L--10----------10--10--10--|
---8-----8---8----0-----8--|---L---8----0--0---8---8---8--|
---8-----8---8----0-----8--|---L---8----0--0---8---8---8--|

PM PM PM PM PM
Q E Q Q E Q E Q E E E E E E E E E E E E


-----------------------|---------------------------|--------------------------|
-----------------------|---------------------------|--------------------------|
-----------------------|---------------------------|--------------------------|
--0----0--0----0----0--|--3----3--3----3--3--3--3--|--8--------7--------8-----|
--0----0--0----0----0--|--3----3--3----3--3--3--3--|--8--8--8--8--8--8--8--8--|
--0----0--0----0----0--|--3----3--3----3--3--3--3--|--8--8--8--7--7--7--8--8--|

PM PM PM
E E E E E E E S S E E E E E E E


-----------------------------|--------------------------------------|
-----------------------------|--10h-11p-10--------------------------|
-----------------------------|--------------12--10------10----------|
-----10----------10--10--10--|----------------------12------12--10--|
--8--10--10--10--10--10--10--|--------------------------------------|
--8--10--10--10--10--10--10--|--------------------------------------|

Q E E E E E E Q E E E E E E


----------------------------------|---------------------------|
----------------------------------|---------------------------|
--12br----10--------------10------|----------10--------10-----|
--------------12--10--12------12--|--7----8------7--8------7--|
----------------------------------|---------------------------|
----------------------------------|---------------------------|

E E E E E E E E S S E E E E E E E


---------------------13----------|--------------------------------------|
-------------10--11------11--10--|--10h-11p-10--------------------------|
-----10--12----------------------|--------------12--10------10----------|
--8------------------------------|----------------------12------12--10--|
---------------------------------|--------------------------------------|
---------------------------------|--------------------------------------|

Q E E E E E Q E E E E E E E E


------------------------------------|----------13----------13----------|
------------------------------------|--10--11------10--11------10--11--|
--12br----10--------------10--------|----------------------------------|
--------------12--10--12------12----|----------------------------------|
------------------------------------|----------------------------------|
------------------------------------|----------------------------------|


--13----------13----------13--15--|----------------------------|
------10--11------10--11----------|----------------------------|
----------------------------------|--------10--------10--------|
----------------------------------|--7--8------7--8------7--8--|
----------------------------------|----------------------------|
----------------------------------|----------------------------|


------------------------------|----------13----------13----------|
------------------------------|--10--11------10--11------10--11--|
--10--------10--------10--12--|----------------------------------|
------7--8------7--8----------|----------------------------------|
------------------------------|----------------------------------|
------------------------------|----------------------------------|


--13----------13----------13--15--|----------------------------|
------10--11------10--11----------|----------------------------|
----------------------------------|--------10--------10--------|
----------------------------------|--7--8------7--8------7--8--|
----------------------------------|----------------------------|
----------------------------------|----------------------------|

E E E E E E E E W W


------------------------------|-------------------|-------------------|
------------------------------|-------------------|-------------------|
--10--------10--------10--12--|-------------------|-------------------|
------7--8------7--8----------|--0----------------|-------------------|
------------------------------|--0----------------|-------------------|
------------------------------|--0----------------|-------------------|

W W Q H.


-------------------|-------------------|--------------------|
-------------------|-------------------|--------------------|
-------------------|-------------------|--------------------|
-------------------|--L----------------|--0-----------------|
-------------------|--L----------------|--0-----------------|
-------------------|--L----------------|--0-----------------|

PM
W W H H


-------------------|-------------------|--------------------|
-------------------|-------------------|--------------------|
-------------------|-------------------|--------------------|
-------------------|-------------------|-----------0--------|
-------------------|-------------------|-----------0--------|
-------------------|-------------------|-----------0--------|


--------------------------|--------------------------|
--------------------------|--------------------------|
--7--7--7--7--7--7--7--7--|--7--7--7--7--7--7--7--7--|
--------------------------|--------------------------|
--5--5--5--5--5--5--5--5--|--5--5--5--5--5--5--5--5--|
--------------------------|--------------------------|


--------------------------|--------------------------|
--------------------------|--------------------------|
--9--9--9--9--9--9--9--9--|--9--9--9--9--9--9--9--9--|
--------------------------|--------------------------|
--7--7--7--7--7--7--7--7--|--7--7--7--7--7--7--7--7--|
--------------------------|--------------------------|


----------------------------------|----------------------------------|
----------------------------------|----------------------------------|
--10--10--10--10--10--10--10--10--|--10--10--10--10--10--10--10--10--|
----------------------------------|----------------------------------|
---8---8---8---8---8---8---8---8--|---8---8---8---8---8---8---8---8--|
----------------------------------|----------------------------------|


----------------------------------|----------------------------------|
----------------------------------|----------------------------------|
--12--12--12--12--12--12--12--12--|--12--12--12--12--12--12--12--12--|
----------------------------------|----------------------------------|
--10--10--10--10--10--10--10--10--|--10--10--10--10--10--10--10--10--|
----------------------------------|----------------------------------|

PM PM PM
E E E E E E E E E E E E E E Q


-----------------------------|--------------------------|
-----------------------------|--------------------------|
-----------------------------|--------------------------|
-----------------------------|--------------------------|
--0--0--3p--0--5p--0--0--3h--|--0-----5p--0--5--0--3----|
--0--0----------------0------|---------------5--0--3----|

PM PM PM
E E E E E E E E E E E E Q Q


-----------------------------|-------------------------|
-----------------------------|-------------------------|
-----------------------------|-------------------------|
-----------------------------|---------------3----5----|
--0--0--3p--0--5p--0--0--3h--|--0-----5p--0--3----5----|
--0--0----------------0------|---------------3----5----|

PM PM PM
E E E E E E E E E E E E E E Q


-----------------------------|--------------------------|
-----------------------------|--------------------------|
-----------------------------|--------------------------|
-----------------------------|--------------------------|
--0--0--3p--0--5p--0--0--3h--|--0-----5p--0--5--0--3----|
--0--0----------------0------|---------------5--0--3----|

PM PM PM
E E E E E E E E E E E E E E Q W


-----------------------------|--------------------------|-------------------|
-----------------------------|--------------------------|-------------------|
-----------------------------|--------------------------|-------------------|
-----------------------------|---------------5--0--3----|-------------------|
--0--0--3p--0--5p--0--0--3h--|--0-----5p--0--5--0--3----|-------------------|
--0--0----------------0------|---------------5--0--3----|-------------------|

W E H E E E W


-------------------|-----------------------|-------------------|
-------------------|-----------------------|-------------------|
-------------------|-----------------------|-------------------|
--L----------------|--0-----------0-----0--|-------------------|
--L----------------|--0-----------0-----0--|-------------------|
--L----------------|--0-----------0-----0--|-------------------|

E H E E E H Q Q E H E E E


-----------------------|---------------------|-----------------------|
-----------------------|---------------------|-----------------------|
-----------------------|---------------------|-----------------------|
--0-----------0-----0--|-----------3----5----|--0-----------0-----0--|
--0-----------0-----0--|-----------3----5----|--0-----------0-----0--|
--0-----------0-----0--|-----------3----5----|--0-----------0-----0--|

W E H E E E H Q Q


-------------------|-----------------------|---------------------|
-------------------|-----------------------|---------------------|
-------------------|-----------------------|---------------------|
-------------------|--0-----------0-----0--|-----------3----5----|
-------------------|--0-----------0-----0--|-----------3----5----|
-------------------|--0-----------0-----0--|-----------3----5----|

W W


-------------------|-------------------|-------------------||
-------------------|-------------------|-------------------||
-------------------|-------------------|-------------------||
--0----------------|-------------------|--L----------------||
--0----------------|-------------------|--L----------------||
--0----------------|-------------------|--L----------------||

jeremy
W W W


D#||-------------------|-------------------|-------------------|
A#||-------------------|-------------------|-------------------|
F#||-------------------|-------------------|-------------------|
C#||-------------------|-------------------|-------------------|
G#||-------------------|-------------------|-------------------|
C#||-------------------|-------------------|-------------------|

W W W W


-------------------|-------------------|-------------------|-------------------|
-------------------|-------------------|-------------------|-------------------|
-------------------|-------------------|-------------------|-------------------|
-------------------|-------------------|-------------------|-------------------|
-------------------|-------------------|-------------------|-------------------|
-------------------|-------------------|-------------------|-------------------|

W E E E E E E E E


-------------------|--------------------------------|
-------------------|--------------------------------|
-------------------|--------------------------------|
-------------------|--------------------------------|
-------------------|--------------------------------|
-------------------|--10p--0--0--10p--0--0--10p--0--|

E E E E E E Q E E E E E E E E


------------------------------|--------------------------------|
------------------------------|--------------------------------|
------------------------------|--------------------------------|
------------------------------|--------------------------------|
------------------------------|--------------------------------|
--0--10p--0--0--10p--0--12----|--10p--0--0--10p--0--0--10p--0--|


------------------------------|--------------------------------|
------------------------------|--------------------------------|
------------------------------|--------------------------------|
------------------------------|--------------------------------|
------------------------------|--------------------------------|
--0--10p--0--0--3p--0--5p--0--|--10p--0--0--10p--0--0--10p--0--|

E E E E E E Q E E E E E E E E


------------------------------|--------------------------------|
------------------------------|--------------------------------|
------------------------------|--------------------------------|
------------------------------|--------------------------------|
------------------------------|--------------------------------|
--0--10p--0--0--10p--0--12----|--10p--0--0--10p--0--0--10p--0--|

PM PM PM
E E E E E E Q E E E E E E E E


---------------------------|-----------------------------|
---------------------------|-----------------------------|
---------------------------|-----------------------------|
----------------3--0--5----|-----------------------------|
----------------3--0--5----|--0--0--3p--0--5p--0--0--3h--|
--0--10p--0--0--3--0--5----|--0--0----------------0------|

PM PM PM
E E E E E E Q E E E E E E E E


--------------------------|-----------------------------|
--------------------------|-----------------------------|
--------------------------|-----------------------------|
--------------------------|-----------------------------|
--0-----5p--0--5--0--3----|--0--0--3p--0--5p--0--0--3h--|
---------------5--0--3----|--0--0----------------0------|

PM PM PM
E E E E E E Q E E E E E E E E


--------------------------|-----------------------------|
--------------------------|-----------------------------|
--------------------------|-----------------------------|
--------------------------|-----------------------------|
--0-----5p--0--5--0--3----|--0--0--3p--0--5p--0--0--3h--|
---------------5--0--3----|--0--0----------------0------|

PM PM PM
E E E E E E Q E E E E E E E E


--------------------------|-----------------------------|
--------------------------|-----------------------------|
--------------------------|-----------------------------|
--------------------------|-----------------------------|
--0-----5p--0--5--0--3----|--0--0--3p--0--5p--0--0--3h--|
---------------5--0--3----|--0--0----------------0------|

PM PM PM
E E E E E E Q E E E E E E E E


--------------------------|-----------------------------|
--------------------------|-----------------------------|
--------------------------|-----------------------------|
--------------------------|-----------------------------|
--0-----5p--0--5--0--3----|--0--0--3p--0--5p--0--0--3h--|
---------------5--0--3----|--0--0----------------0------|

PM PM PM
E E E E E E Q E E E E E E E E


--------------------------|-----------------------------|
--------------------------|-----------------------------|
--------------------------|-----------------------------|
--------------------------|-----------------------------|
--0-----5p--0--5--0--3----|--0--0--3p--0--5p--0--0--3h--|
---------------5--0--3----|--0--0----------------0------|

PM PM PM
E E E E E E Q E E E E E E E E


--------------------------|-----------------------------|
--------------------------|-----------------------------|
--------------------------|-----------------------------|
--------------------------|-----------------------------|
--0-----5p--0--5--0--3----|--0--0--3p--0--5p--0--0--3h--|
---------------5--0--3----|--0--0----------------0------|

PM PM PM
E E E E E E Q E E E E E E E E


--------------------------|-----------------------------|
--------------------------|-----------------------------|
--------------------------|-----------------------------|
--------------------------|-----------------------------|
--0-----5p--0--5--0--3----|--0--0--3p--0--5p--0--0--3h--|
---------------5--0--3----|--0--0----------------0------|

PM PM PM PM PM PM PM PM
E E E E E E Q E E E E E E E E


--------------------------|--------------------------|
--------------------------|--------------------------|
--------------------------|--------------------------|
--------------------------|--0--0--0--0--0--0--0--0--|
--0-----5p--0--5--0--3----|--0--0--0--0--0--0--0--0--|
---------------5--0--3----|--0--0--0--0--0--0--0--0--|

PM PM PM PM PM PM PM PM PM PM PM PM PM PM PM PM


--------------------------|--------------------------|
--------------------------|--------------------------|
--------------------------|--------------------------|
--0--0--0--0--0--0--0--0--|--3--3--3--3--3--3--3--3--|
--0--0--0--0--0--0--0--0--|--3--3--3--3--3--3--3--3--|
--0--0--0--0--0--0--0--0--|--3--3--3--3--3--3--3--3--|

PM PM PM PM PM PM PM PM PM PM PM PM PM PM PM PM


--------------------------|--------------------------|
--------------------------|--------------------------|
--------------------------|--------------------------|
--3--3--3--3--3--3--3--3--|--5--5--5--5--5--5--5--5--|
--3--3--3--3--3--3--3--3--|--5--5--5--5--5--5--5--5--|
--3--3--3--3--3--3--3--3--|--5--5--5--5--5--5--5--5--|

PM PM PM PM PM PM PM PM PM PM PM PM PM PM PM


--------------------------|-----------------------|
--------------------------|-----------------------|
--------------------------|-----------------------|
--5--5--5--5--5--5--5--5--|--8--8--8--8--8--8--8--|
--5--5--5--5--5--5--5--5--|--8--8--8--8--8--8--8--|
--5--5--5--5--5--5--5--5--|--8--8--8--8--8--8--8--|

PM PM PM PM PM PM PM PM PM PM PM PM PM


----------------------------------------|-----------------------|
----------------------------------------|-----------------------|
----------------------------------------|-----------------------|
--10--10--10--10--10--10--12-----12-----|--0--0--0--0--0--0--0--|
--10--10--10--10--10--10--12-----12-----|--0--0--0--0--0--0--0--|
--10--10--10--10--10--10--12-----12-----|--0--0--0--0--0--0--0--|

PM PM PM PM PM PM PM PM PM PM PM PM PM PM PM PM


--------------------------|--------------------------|
--------------------------|--------------------------|
--------------------------|--------------------------|
--0--0--0--0--0--0--0--0--|--3--3--3--3--3--3--3--3--|
--0--0--0--0--0--0--0--0--|--3--3--3--3--3--3--3--3--|
--0--0--0--0--0--0--0--0--|--3--3--3--3--3--3--3--3--|

PM PM PM PM PM PM PM PM PM PM PM PM PM PM PM PM


--------------------------|--------------------------|
--------------------------|--------------------------|
--------------------------|--------------------------|
--3--3--3--3--3--3--3--3--|--5--5--5--5--5--5--5--5--|
--3--3--3--3--3--3--3--3--|--5--5--5--5--5--5--5--5--|
--3--3--3--3--3--3--3--3--|--5--5--5--5--5--5--5--5--|

PM PM PM PM PM PM PM PM PM PM PM PM


--------------------------|--------------------------|
--------------------------|--------------------------|
--------------------------|--------------------------|
--5--5--5--5--5--5--5--5--|--8--8--8--8--8--8--8--8--|
--5--5--5--5--5--5--5--5--|--8--8--8--8--8--8--8--8--|
--5--5--5--5--5--5--5--5--|--8--8--8--8--8--8--8--8--|

E E E E E E E S S E E E E E E E E


------------------------------------|--------------------------|
------------------------------------|--------------------------|
------------------------------------|--------------------------|
--10--10--10--10--10--10--10--------|--8--8-----7--7-----8--8--|
--10--10--10--10--10--10--10--10-10-|--8--8-----8--8-----8--8--|
--10--10--10--10--10--10--10--10-10-|--8--8-----7--7-----8--8--|

E E E E E E E Q E Q Q E Q E Q Q E


--------------------------|-----------------------|-----------------------|
--------------------------|-----------------------|-----------------------|
--------------------------|-----------------------|-----------------------|
-----7--7-----10--10--10--|--0----0--0----0----0--|--3----3--3----3----3--|
-----8--8-----10--10--10--|--0----0--0----0----0--|--3----3--3----3----3--|
-----7--7-----10--10--10--|--0----0--0----0----0--|--3----3--3----3----3--|

PM PM PM
Q E Q Q E E Q E E E E E


---------------------------|------------------------------|
---------------------------|------------------------------|
---------------------------|------------------------------|
--10----10--10---------10--|---L--10----------10--10--10--|
---8-----8---8----0-----8--|---L---8----0--0---8---8---8--|
---8-----8---8----0-----8--|---L---8----0--0---8---8---8--|

PM PM PM PM PM
Q E Q Q E Q E Q E E E E E E E E E E E E


-----------------------|---------------------------|--------------------------|
-----------------------|---------------------------|--------------------------|
-----------------------|---------------------------|--------------------------|
--0----0--0----0----0--|--3----3--3----3--3--3--3--|--8--------7--------8-----|
--0----0--0----0----0--|--3----3--3----3--3--3--3--|--8--8--8--8--8--8--8--8--|
--0----0--0----0----0--|--3----3--3----3--3--3--3--|--8--8--8--7--7--7--8--8--|

PM PM PM
E E E E E E E Q E Q Q E Q E Q Q E


-----------------------------|-----------------------|-----------------------|
-----------------------------|-----------------------|-----------------------|
-----------------------------|-----------------------|-----------------------|
-----10----------10--10--10--|--0----0--0----0----0--|--3----3--3----3----3--|
--8--10--10--10--10--10--10--|--0----0--0----0----0--|--3----3--3----3----3--|
--8--10--10--10--10--10--10--|--0----0--0----0----0--|--3----3--3----3----3--|

PM PM PM
Q E Q Q E E Q E E E E E


---------------------------|------------------------------|
---------------------------|------------------------------|
---------------------------|------------------------------|
--10----10--10---------10--|---L--10----------10--10--10--|
---8-----8---8----0-----8--|---L---8----0--0---8---8---8--|
---8-----8---8----0-----8--|---L---8----0--0---8---8---8--|

PM PM PM PM PM
Q E Q Q E Q E Q E E E E E E E E E E E E


-----------------------|---------------------------|--------------------------|
-----------------------|---------------------------|--------------------------|
-----------------------|---------------------------|--------------------------|
--0----0--0----0----0--|--3----3--3----3--3--3--3--|--8--------7--------8-----|
--0----0--0----0----0--|--3----3--3----3--3--3--3--|--8--8--8--8--8--8--8--8--|
--0----0--0----0----0--|--3----3--3----3--3--3--3--|--8--8--8--7--7--7--8--8--|

PM PM PM PM PM PM
E E E E E E Q E E E E E E E E


--------------------------------|-----------------------------|
--------------------------------|-----------------------------|
--------------------------------|-----------------------------|
-----10----------10--10--12----|-----------------------------|
--8--10--10--10--10--10--12----|--0--0--3p--0--5p--0--0--3h--|
--8--10--10--10--10--10--12----|--0--0----------------0------|

PM PM PM
E E E E E E Q E E E E E E E E


--------------------------|-----------------------------|
--------------------------|-----------------------------|
--------------------------|-----------------------------|
--------------------------|-----------------------------|
--0-----5p--0--5--0--3----|--0--0--3p--0--5p--0--0--3h--|
---------------5--0--3----|--0--0----------------0------|

PM PM PM
E E E E E E Q E E E E E E E E


--------------------------|-----------------------------|
--------------------------|-----------------------------|
--------------------------|-----------------------------|
--------------------------|-----------------------------|
--0-----5p--0--5--0--3----|--0--0--3p--0--5p--0--0--3h--|
---------------5--0--3----|--0--0----------------0------|

PM PM PM
E E E E E E Q E E E E E E E E


--------------------------|----------------------------|
--------------------------|----------------------------|
--------------------------|----------------------------|
--------------------------|-------------------------0--|
--0-----5p--0--5--0--3----|--0--0--3p--0--5p--0--0--0--|
---------------5--0--3----|--0--0----------------0--0--|

E E E E E E E E W W


--------------------------|-------------------|-------------------|
--------------------------|-------------------|-------------------|
--------------------------|-------------------|-------------------|
--------------------------|-------------------|-------------------|
-----3--5--0--------3--5--|-------------------|--L----------------|
--------------3--5--------|-------------------|-------------------|

W W W W


-------------------|-------------------|-------------------|-------------------|
-------------------|-------------------|-------------------|-------------------|
-------------------|-------------------|-------------------|-------------------|
-------------------|-------------------|-------------------|-------------------|
-------------------|-------------------|-------------------|-------------------|
-------------------|-------------------|-------------------|-------------------|

PM PM PM PM PM PM PM PM
W H E E E E E E E E E E E E E


-------------------|----------------------------|--------------------------|
-------------------|----------------------------|--------------------------|
-------------------|----------------------------|--------------------------|
-------------------|--------------10-----10-----|--0--0--0--0--0--0--0--0--|
-------------------|--------------10-----10-----|--0--0--0--0--0--0--0--0--|
-------------------|--------------10-----10-----|--0--0--0--0--0--0--0--0--|

PM PM PM PM PM PM PM PM PM PM PM PM PM PM PM PM PM PM PM PM PM PM PM


-----------------------|--------------------------|--------------------------|
-----------------------|--------------------------|--------------------------|
-----------------------|--------------------------|--------------------------|
--0--0--0--0--0--0--0--|--3--3--3--3--3--3--3--3--|--3--3--3--3--3--3--3--3--|
--0--0--0--0--0--0--0--|--3--3--3--3--3--3--3--3--|--3--3--3--3--3--3--3--3--|
--0--0--0--0--0--0--0--|--3--3--3--3--3--3--3--3--|--3--3--

To play the this songs, including Poison by My American Heart by ukulele, the most important basic ukulele chords to learn are C chord, D chord, G chord, and Em chord.
These set you up to play a many of songs, and each of them is easy to learn.

Gravatar Image
Like to play Ukulele and Sudoku Game

Leave a Reply

Your email address will not be published. Required fields are marked *