Poor Heart by Phish Ukulele Chords

Posted on

If you are looking for Poor Heart ukulele chords, you already visit to the right site.
You can play versatile instrument Poor Heart using ukulele or guitar.
This song by Phish can also be played by that instruments.
=

Poor Heart chords has rhythm and included in Other Songs album.
You can also find other musical style, including jazz ukulele chords, country music ukulele chords, pop ukulele chords, world music ukulele chords, and rock ukulele chords here.

Poor Heart by Phish Ukulele Chords


-----------------------------------------------------------------------------

Poor Heart – Phish


-----------------------------------------------------------------------------

Tabbed by: Pauly S
Email: Pscarinci@aol.com

Chords used in song:


E|--3--3---3---3----0---0---2-
B|--3--6---5---5----0---2---1-
G|--4--4---5---3----1---0---2-
D|--5--5---5---5----0---2---0-
A|--5--5---3---4----2---0-----
E|--3--3------------0---------

Intro (bass guitar):

| | | | | |
v H v ^ v H v ^ v H v ^ v H v ^ v H v ^ v H v ^ v H v ^ v H v ^


G|----------------------------------|----------------------------------|
D|-----0-0-----0-0-----0-0------0-0-|-----0-0-----0-0-----0-0------0-0-|
A|-4-5-----4-5-----4-5------4-5-----|-4-5-----4-5-----4-5------4-5-----|
E|----------------------------------|----------------------------------|

One Two One Two Three Four…

| | | | | |
v H v ^ v H v ^ v H v ^ v H v ^ v H v ^ v H v ^ v H v ^ v H v ^


G|----------------------------------|----------------------------------|
D|-----0-0-----0-0-----0-0------0-0-|-----0-0-----0-0-----0-0------0-0-|
A|-4-5-----4-5-----4-5------4-5-----|-4-5-----4-5-----4-5------4-5-----|
E|----------------------------------|----------------------------------|

Intro guitar lick:

| | | |
P P S


E|---15----------------------------------------|
B|------17-15----17----15----------------------|
G|------------16----16----16-14----14-12----12-|
D|------------------------------16-------14----|
A|---------------------------------------------|
E|---------------------------------------------|

| | | |
S H H ~


E|------------------------------------|---|
B|------------------------------------|---|
G|-10----12----10-----------0---------|---|
D|----12----12-------10-8-9---3-0-----|---|
A|----------------12--------------3-1-|---|
E|------------------------------------|-3-|

Over a bluegrass bass line:

(no chords)
You won’t steal my poor heart again
You won’t steal my poor heart again
You won’t steal my tape recorder
I’ll call the lord
And he’ll put you in the pen
You won’t steal that thing again.

I didn’t even know your name or what was your game

But stealin’ things has sure brought you to fame

I wanna know if you stole mine

It was one of a kind and I’m saying if you’re to blame

You’re life will never be the same

You won’t steal my poor heart again
You won’t steal my poor heart again
You won’t steal my tape recorder
I’ll call the lord
And he’ll put you in the pen
You won’t steal that thing again.

Bass solo chords:
C Bb F/A (3x)

Guitar solo (played about as fast as humanly possible over verse chords):

| | | | | | | 1 |
/S v ^ v (etc.) /


E|----------------------------------|--------------------------------|
B|----8-8-8-8-8-8-8-8-8-8-8-8-8-8-8-|-8-8-8-8-8-8-10-10--------------|
G|----------------------------------|--------------------------------|
D|--9-------------------------------|--------------------------------|
A|----------------------------------|--------------------------------|
E|----------------------------------|--------------------------------|

1 1 1 1 1 1/2,1


/ / / / /-----+ / ------
E|--------------------------------|--------------------------------|
B|-10---10---10---10-(10)-8---8---|-10-----------------------5-----|
G|--------------------------9---9-|----9-7---7---------------5-----|
D|--------------------------------|--------9-----------------------|
A|--------------------------------|--------------------------------|
E|--------------------------------|--------------------------------|

—/

1 | | | |
—–+ / H P H P H


E|---3-----------3----------------|-------------------------3-------6-|
B|--------------------------------|---------------------2-5-----5-8---|
G|-----5-(5)-3-----3-4-3----------|-------3-----3-5---3-------6-------|
D|-------------5---------2-3------|---2-5-----2-----------------------|
A|---------------------------5-4--|-3---------------------------------|
E|--------------------------------|-----------------------------------|

–/

/S S /S S /S


E|----15-------13-------12---11----10------8-|-----7---6---5-----3----|
B|-------------------------------------------|------------------------|
G|-16----16-14----14-12---11----10----7-9----|-9-7---6---5---3-4------|
D|-------------------------------------------|------------------------|
A|-------------------------------------------|------------------------|
E|-------------------------------------------|------------------------|

/S / /


E|----15----15-17-17--15-17-15-17--15-17-17-15-15-15-|
B|---------------------------------------------------|
G|-16----16------------------------------------------|
D|---------------------------------------------------|
A|---------------------------------------------------|
E|---------------------------------------------------|

–/


/ / / / /------+/ /------
E|-17--17--17--17-(17)-15----15----|-17-------------------------|
B|------------------------17----17-|----17--------15----15------|
G|---------------------------------|------------------------14--|
D|---------------------------------|--------14-16----16---------|
A|---------------------------------|----------------------------|
E|---------------------------------|----------------------------|

—/

[–+]


E|------15----------------------------15-14-13-11-|
B|---15----15-------------------12-15-------------|
G|------------14-12----14----12-------------------|
D|------------------14----14----------------------|
A|------------------------------------------------|
E|------------------------------------------------|

/S


E|-12-------------------12--------|
B|----13-------------13----14-----|
G|-------12-14-15-12--------------|
D|--------------------------------|
A|--------------------------------|
E|--------------------------------|


[/]


E|17-15----------------------------------|--------------------------|
B|-----18-17-16-15-----------------------|--------------------------|
G|-----------------17-15-16--------------|--------------------------|
D|---------------------------------15-16-|17-15-14-13---------------|
A|-------------------------17-16-17------|------------17-15-14------|
E|---------------------------------------|---------------------17-15|

2nd verse, just like the first:
I can’t track you anymore
Detective work has sure become a bore
Tell me what you did with it
Stop this shit, give up yourself
Before they come knockin’ at your door.

You won’t steal my poor heart again
You won’t steal my poor heart again
You won’t steal my tape recorder
I’ll call the lord
And he’ll put you in the pen
D G->E7
You won’t steal that thing again

You won’t steal my poor heart again

| | | |
P P S


E|---15----------------------------------------|
B|------17-15----17----15----------------------|
G|------------16----16----16-14----14-12----12-|
D|------------------------------16-------14----|
A|---------------------------------------------|
E|---------------------------------------------|

| | | | 1/2 1/2
S S /S /—+ /


E|------------------------------|-----|
B|----------------------8-10-11-|-11--|
G|-10----12----10-7-------------|-----|
D|----12----12------8-9---------|-----|
A|------------------------------|-----|
E|------------------------------|-----|

—–/

| / slide up
| slide down
| h hammer-on
| p pull-off
| ~ vibrato
| + harmonic
| x Mute note

To play the this songs, including Poor Heart by Phish by ukulele, the most crucial basic ukulele chords to learn are C chord, D chord, G chord, and Em chord.
These set you up to play a ton of songs, and each of them is easy to learn.

Gravatar Image
Like to play Ukulele and Sudoku Game

Leave a Reply

Your email address will not be published. Required fields are marked *