Pop Goes The Weasel (failed by Apocalypse Hoboken Ukulele Chords

Posted on

If you are looking for Pop Goes The Weasel (failed ukulele chords, you already visit to the right site.
You can play versatile instrument Pop Goes The Weasel (failed using ukulele or guitar.
This song by Apocalypse Hoboken can also be played by that instruments.
=

Pop Goes The Weasel (failed chords has rhythm and included in album.
You can also find another musical style, including jazz ukulele chords, country music ukulele chords, pop ukulele chords, world music ukulele chords, and rock ukulele chords here.

Pop Goes The Weasel (failed by Apocalypse Hoboken Ukulele Chords

Intro (the same thing as post verse but i like to add some stuff)

e|-|------------------------|------------------------|------------------------|------------------------|-|
B|-|------------------------|------------------------|------------------------|------------------------|-|
G|-|------------------------|------------------------|------------------------|------------------------|-|
D|-|------------------------|------------------------|------------------------|------------------------|-|
A|-|----------------------5-|-4--5-------------------|----------------------4-|-2-----0--0--2--0-------|-|
E|-|-2-----2-----x--x--x----|------------------------|-0-----0-----x--x--x----|-------------------0--0-|-|


Post-Verse


e|-|------------------------|------------------------|------------------------|------------------------|-|
B|-|------------------------|------------------------|------------------------|------------------------|-|
G|-|------------------------|------------------------|------------------------|------------------------|-|
D|-|------------------------|------------------------|------------------------|------------------------|-|
A|-|------------------------|-5-----5-----5--5--5--5-|------------------------|-4-----4--4-------------|-|
E|-|-2-----2-----2--2--2--2-|------------------------|-0-----0-----0--0--0--0-|-------------5--5--5--5-|-|


Verse


e|-|-------9--9--------5----|-------7--7--------4----|-------9--9--------5----|-7----------------------|-|
B|-|------10-10--------7----|-------9--9--------5----|------10-10--------7----|-9----------------------|-|
G|-|------11-11--------7----|-------9--9--------6----|------11-11--------7----|-9----------------------|-|
D|-|------11-11--------7----|-------9--9--------6----|------11-11--------7----|-9----------------------|-|
A|-|-9--9--9--9--5--5--5--5-|-7--7--7--7--4--4--4--4-|-9--9--9--9--5--5--5--5-|-7--7--7--7--7--7--7--7-|-|
E|-|------------------------|------------------------|------------------------|------------------(5)(4)|-|

play () on the 4th repeat
Chorus


e|-|------------------------|------------------------|-|
B|-|------------------------|------------------------|-|
G|-|------------------------|------------------------|-|
D|-|------------------------|-------------2--2-------|-|
A|-|-2--2--2----------------|-5--5--5--5-------------|-|
E|-|----------4--2--2--2--2-|-------------------4--2-|-|



Back in ‘80-5, yeah, the scene was strong, yeah, the scene was alive
It took a lot of time to build it up and break it down again
You tried to be, yeah, you tried to be a friend but no one understands you and you’re hard to comprehend
Because there’s no one we know, no one really knows


And I tried to be a friend but I cant ’cause there’s no one there
I don’t know what’s goin’ on, I don’t really know
No one nobody cares, kids with green hair and nobody stares
I don’t know what’s goin’ on, I don’t really know


Back in ‘80-5 the scene was strong, yeah, the scene was alive
It took a lot of time to build it up and break it down again
I tried to be, yeah, I tried to be your friend but no one understands and it’s hard to comprehend
And now there’s no one we know, no one really knows


You tried to throw it down, shave your head and move downtown
I don’t wanna be like them, I don’t wanna be
They shut us down inside, closed our scene with no surprise
I don’t wanna be like them, I don’t wanna be

Pop goes the weasel, the band is tired, it’s time to go home
Pop goes the weasel, the band is tired, it’s time to go home
Pop goes the weasel, the band is tired, it’s time to go home
Pop goes the weasel, the band is tired, it’s time to go home


Back in ‘90-4, the scene’s the same as it was before
It took a lot of time to build it up and break it down again
I tried to be, yeah, I tried to be your friend but no one understands and it’s hard to comprehend
No one we know, no one really knows

No one is satisfied, the kids are angry ’cause Green Day lied
I don’t wanna be like them, I don’t wanna be
Bloodstains and alibis, our scene’s collapsed with no compromise
I don’t wanna be like them, I don’t wanna be

Pop goes the weasel, the band is tired, it’s time to go home
Pop goes the weasel, the band is tired, it’s time to go home
Pop goes the weasel, the band is tired, it’s time to go home
Pop goes the weasel, the band is tired, it’s time to go home
Go home

To play the most songs, including Pop Goes The Weasel (failed by Apocalypse Hoboken by ukulele, the most important basic ukulele chords to learn are C chord, D chord, G chord, and Em chord.
These set you up to play a many of songs, and each of them is easy to master.

Leave a Reply

Your email address will not be published.