Pria Kesepian by Sheila on 7 Ukulele Chords

Posted on

If you are looking for Pria Kesepian ukulele chords, you’ve come to the right site.
You can play versatile instrument Pria Kesepian using ukulele or guitar.
This song by Sheila on 7 can also be played by that instruments.
=

Pria Kesepian chords has rhythm and included in 07 Des (2002) album.
You can also get another musical genres, including jazz ukulele chords, country music ukulele chords, pop ukulele chords, world music ukulele chords, and rock ukulele chords here.

Pria Kesepian by Sheila on 7 Ukulele Chords


-------------------------------------------------------------------------------

Pria Kesepian – Sheila On 7


-------------------------------------------------------------------------------

Tabbed by:Andi Firanra a.k.a Andi Soul Low
Email:andi_firanra@yahoo.com

Tuning:Standard Tuning
Intro: Amaj Dmaj Amaj Dmaj


e|----------------------------------------------------------------------
B|-2--------------------------------------------2-----------------------
G|-2--------------------------------------------2----------------------- ->2x
D|-2-2/5--4--2---4h2----2-----------0-----------2----------------------- /
A|-------------------5------3-3h5-3---3-2/3-2-0-------------------------/
E|----------------------------------------------------------------------

Kami adalah pria pria kesepian

Jauh dari rumah dan ditinggalkan cinta

Coba dengar keluhan kami

Pria kesepian

Amaj Emaj F#minor Emaj
Ku telah berjanji
akan selalu
menjagamu

Tapi,
F#minor Emaj
Kau selalu pergi
Bersama kekasih baru mu

Dmaj7

F#minor


Ku
F#minor Emaj
telah berjanji
dapat cinta
malam ini

tapi
F#minor Emaj
hujan badai
telah datang
menemaniku

Amaj Emaj F#minor Emaj Dmaj
Menikmati pedihnya cinta

pria kesepian
Amaj Emaj F#minor Emaj Dmaj
menikmati dinginnya hati

pria kesepian

solo:(repeat twice)


e|------------------------------------|--------------------------------------|
B|--10---9---7---5---7/5-----2p3-2--0-|-10--9--7--5--7p5-----2p3-2-----------|
G|----------------------7---------4---|-------------------7-------4--2--4----|
D|------------------------------------|--------------------------------------|
A|------------------------------------|--------------------------------------|
E|------------------------------------|--------------------------------------|
e|---------------------------------------------------------------------------|
B|----------------3-2--------------------------------------------------------|
G|--6--4-2---2-4------4-2-4--------------------------------------------------|
D|---------------------------------------------------------------------------|
A|---------------------------------------------------------------------------|
E|---------------------------------------------------------------------------|

Dmaj7 F#minor Emaj
Apakah diriku terlalu wibawa dan tampan untuk selalu kau miliki? 2x

Dmaj7 F#minor Emaj
Pastilah diriku terlalu wibawa dan tampan untuk selalu kau miliki

repeat

Kami adalah pria pria kesepian

jauh dari rumah dan ditinggalkan cinta

To all Sheila On 7 fans,this tab I’ll send to all of you who like this
song.This song quite special meaning to me.

Buat kawan kawan yang meminati lagu ini…ini sahaja yang termampu.
Kepada member member jamming,Ardy dan Kodot..kalau ada apa apa slack tu bagi
tau ler kat aku.

| / slide up
| slide down
| h hammer-on
| p pull-off
| ~ vibrato
| + harmonic
| x Mute note

To play the most songs, including Pria Kesepian by Sheila on 7 by ukulele, the most crucial basic ukulele chords to learn are C chord, D chord, G chord, and Em chord.
These set you up to play a many of songs, and each of them is easy to learn.

Leave a Reply

Your email address will not be published.