Pride Away by Kutless Ukulele Chords

Posted on

If you are looking for Pride Away ukulele chords, you’ve visit to the best site.
You can play versatile instrument Pride Away using ukulele or guitar.
This song by Kutless can also be played by that instruments.
=

Pride Away chords has rhythm and included in Kutless (2002) album.
You can also get another musical style, including jazz ukulele chords, country music ukulele chords, pop ukulele chords, world music ukulele chords, and rock ukulele chords here.

Pride Away by Kutless Ukulele Chords

Song: Pride Away
Band: Kutless
Album: Kutless

Intro
(No guitar)

Verse 1
(No guitar)

Pre-Chorus


G[-7--5---------------------]
D[-7--5--5--3-0-0-3-0-0-3-0-]
A[-5--3--5--3-0-0-3-0-0-3-0-]2x
D[-------5--3-0-0-3-0-0-3-0-]

. . . . .
Chorus


G[-----7-9-9-9-----7-9-9-9-----7-9-9-9---]
D[-7-7-x-x-x-x-3-3-x-x-x-x-5-5-x-x-x-x-5-]
A[-7-7-5-7-7-7-3-3-5-7-7-7-5-5-5-7-7-7-5-]
D[-7-7---------3-3---------5-5---------5-]

Then


G[-----7-9-9-9-----7-9-9-9-----7-7-7-7---]
D[-7-7-x-x-x-x-3-3-x-x-x-x-5-5-x-x-x-x-5-]
A[-7-7-5-7-7-7-3-3-5-7-7-7-5-5-5-5-5-5-5-]
D[-7-7---------3-3---------5-5---------5-]

Verse 2
Gtr. 1


G[------------------------------10-8------]
D[-------10-9--------------10-9------10-9-]
A[-7-7-7------10-7-8-7-7-7----------------]

Gtr. 2


D[-7----5----3----5-]
A[-7----5----3----5-]2x
D[-7----5----3----5-]

Pre-Chorus 2
Gtr. 1


G[-10-8--------------------------]
D[---------------3-0-0-3-0-0-3-0-]
A[------7-8-7-10-3-0-0-3-0-0-3-0-]2x
D[---------------3-0-0-3-0-0-3-0-]

Gtr. 2 . . . . .


G[-7--5---------------------]
D[-7--5--5--3-0-0-3-0-0-3-0-]
A[-5--3--5--3-0-0-3-0-0-3-0-]2x
D[-------5--3-0-0-3-0-0-3-0-]

. . . . .
Chorus

Bridge
Gtr. 1


G[------------------------------10-8------]
D[-------10-9--------------10-9------10-9-]
A[-7-7-7------10-7-8-7-7-7----------------]

Then


A[-7-7-3-3-7-8-7-5-5-5-3-3-7-8-7-5-3-3-3-3-5-5-5-5-7-7-5-5-3-3-5-5-]

. . . . . . . . . . . . . . . . . . . . . . . . . . . . . . . .
Then


G[-------------------------------------------------9-7-5-7-]
D[-------------------------------------------------x-x-x-x-]
A[-7-7-3-3-7-8-7-5-5-5-3-3-7-8-7-5-3-3-3-3-5-5-5-5-7-5-3-5-]

. . . . . . . . . . . . . . . . . . . . . . . .
Gtr. 2


D[-----7-----5-----3-----5-]
A[---7-----5-----3-----5---]4x
D[-7-----5-----3-----5-----]

Then


G[-----7-9-9-9-----7-9-9-9-----7-9-9-9---]
D[-7-7-x-x-x-x-3-3-x-x-x-x-5-5-x-x-x-x-5-]
A[-7-7-5-7-7-7-3-3-5-7-7-7-5-5-5-7-7-7-5-]2x
D[-7-7---------3-3---------5-5---------5-]

Then
Gtr. 1


G[-14-15-14-12-14-15-14-8-8-8-]
D[--x--x--x--x--x--x--x-x-x-x-]2x
A[-12-13-12-10-12-13-12-6-6-6-]

Gtr. 2


D[-0-3h5-0-3h5-0-5h6-0-3h5-3h5-0-3h5-0-3h5-0-5h6-0-3h5-1-1-1-]
A[-0-3h5-0-3h5-0-5h6-0-3h5-3h5-0-3h5-0-3h5-0-5h6-0-3h5-1-1-1-]2x
D[-0-3h5-0-3h5-0-5h6-0-3h5-3h5-0-3h5-0-3h5-0-5h6-0-3h5-1-1-1-]

. . . . . . . . . . . . . . . . . . . . . . . . . . . . .
Chorus

Ending
Gtr. 1


G[-14-15-14-12-14-15-14-8-8-8-]
D[--x--x--x--x--x--x--x-x-x-x-]4x
A[-12-13-12-10-12-13-12-6-6-6-]

Gtr. 2


D[-0-3h5-0-3h5-0-5h6-0-3h5-3h5-0-3h5-0-3h5-0-5h6-0-3h5-1-1-1-]
A[-0-3h5-0-3h5-0-5h6-0-3h5-3h5-0-3h5-0-3h5-0-5h6-0-3h5-1-1-1-]2x
D[-0-3h5-0-3h5-0-5h6-0-3h5-3h5-0-3h5-0-3h5-0-5h6-0-3h5-1-1-1-]

. . . . . . . . . . . . . . . . . . . . . . . . . . . . .
Then


D[-0-3h5-0-3h5-0-5h6-0-3h5-3h5-0-3h5-0-3h5-0-5h6-0-3h5-1-1-1-]
A[-0-3h5-0-3h5-0-5h6-0-3h5-3h5-0-3h5-0-3h5-0-5h6-0-3h5-1-1-1-]2x
D[-0-3h5-0-3h5-0-5h6-0-3h5-3h5-0-3h5-0-3h5-0-5h6-0-3h5-1-1-1-]

I changed the bridge a little

To play the this songs, including Pride Away by Kutless by ukulele, the most important basic ukulele chords to learn are C chord, D chord, G chord, and Em chord.
These set you up to play a many of songs, and each of them is easy to learn.

Leave a Reply

Your email address will not be published.