Ravenheart by Xandria Ukulele Chords

Posted on

If you are looking for Ravenheart ukulele chords, you’ve visit to the best place.
You can play versatile instrument Ravenheart using ukulele or guitar.
This song by Xandria can also be played by that instruments.
=

Ravenheart chords has rhythm and included in Ravenheart (2004) album.
You can also find other musical style, including jazz ukulele chords, country music ukulele chords, pop ukulele chords, world music ukulele chords, and rock ukulele chords here.

Ravenheart by Xandria Ukulele Chords


----------------------------------------------------------------------------

Ravenheart – Xandria


----------------------------------------------------------------------------

Xandria is a Gothic/Metal group from Germany

Tabbed by: zElEka
Email: carolinazatarain_3@hotmail.com

Tuning: E

Intro


e|-------------------------------------------------------------------------|
B|-------------------------------------------------------------------------|
G|-------------------------------------------------------------------------|
D|-------------------------------------------------------------------------|
A|-------------------------------------------------------------------------|
E|---3-5-8--8-5---32--3----------------------------------------------------|


e|-------------------------------------------------------------------------|
B|-------------------------------------------------------------------------|
G|-------------------------------------------------------------------------|
D|-----5---------8--------10---------4-------------------------------------|
A|-----5---------8--------10---------4-------------------------------------|
E|-----3---------6---------8---------2-------------------------------------|

Intro 2
Come to me, Ravenheart
Messenger of evil


Verse
You shadow of forgotten dreams
You come to take away
My hope on your black wings
come on…

Chorus
Come to me, Ravenheart
Messenger of evil
Come to me, what's the news?
Here i’m still lonely

Verse
Of love & hate the singers tell
But i feel more, more of both.
More than heaven and hell
I take a bow to destiny
Now i have really learnt my part
Once loving him, now hating love
I’ve made mistakes, my Ravenheart
So come on…

Chorus x1

Bridge
Will i get back who i adore?
Thus spoke the raven: nevermore

G A# C G F# x2 D

Chorus now in A

A C D A G# x4

Come to me…

To play the most songs, including Ravenheart by Xandria by ukulele, the most crucial basic ukulele chords to learn are C chord, D chord, G chord, and Em chord.
These set you up to play a ton of songs, and each of them is easy to learn.

Leave a Reply

Your email address will not be published.