Ray Ray Rain by Bettie Serveert Ukulele Chords

Posted on

If you are looking for Ray Ray Rain ukulele chords, you’ve visit to the right site.
You can play versatile instrument Ray Ray Rain using ukulele or guitar.
This song by Bettie Serveert can also be played by that instruments.
=

Ray Ray Rain chords has rhythm and included in Lamprey (1995) album.
You can also get another musical style, including jazz ukulele chords, country music ukulele chords, pop ukulele chords, world music ukulele chords, and rock ukulele chords here.

Ray Ray Rain by Bettie Serveert Ukulele Chords


Date: Sat, 03 Jun 1995 18:05:53 -0500 (CDT)
From: Jonathan Gilana
Subject: TAB: “Ray Ray Rain” by Bettie Serveert
“Ray Ray Rain” by Bettie Serveert
Transcribed by Jonathan Gilana
June 3, 1995
Gtr. 1 (clean tone)
Gtr. 2 (slightly distorted)
hhammer-on
/slide up
slide down
///vibrato(use whammy bar)
Verse 1:
Gtr. 1 (during Cadd9 chord, periodically go from E to D on the D string)
Moving on a pale moonlight
Gtr. 2 (riff A)

e----------------------------------------------
B----------3----------------3------------------
G--------------0--0------------0--0------------
D------2----------------2----------------------
A---3----------------3-------------------------
E----------------------------------------------

Gtr. 1 (during G chord, periodically go from B to A on the A string)
Staring at the tail lights of the
Gtr. 2 (riff A-cont’d)


e----------10--------10----8--7---------------
B--------------8-------------------------------
G-------9---------9----------------------------
D----------------------------------------------
A---10-----------------------------------------
E----------------------------------------------

Gtr. 1
Truck that rips the road apart
Gtr. 2 (riff A-cont’d)


e----------------------------------------------
B----------3----------------3------------------
G--------------0--0------------0--0------------
D------2----------------2----------------------
A---3----------------3-------------------------
E----------------------------------------------

Gtr. 1
In front of m e
Gtr. 2 (riff A-cont’d)


e----------------10----------------------------
B----------8---------8-------------------------
G-------9-----9--------------------------------
D----------------------------------------------
A---10-----------------------------------------
E----------------------------------------------

Verse 2:
Gtr. 2 (plays riff A throughout verse)
Gtr. 1
I watch your right hand shifting gear
Wondering what I’m doing here
Cause both our minds
Are occupied by memo ries
Solo:
Gtr.2 (let ring)


e----------------------------------------------------------------------------
B----------------------------------------------------------------------------
G---/11--9--11/12----12/14--12--14/16----12h14/16-------------12h14/16-------
D--------------------------------------------------10-------------------9---
A----------------------------------------------------------------------------
E----------------------------------------------------------------------------

Gtr. 1:

Verse 3:
Gtr. 2 (plays riff A throughout verse)
Gtr. 1
Like a forest in my eye
Are the pillars of the sky
As I picture you
And call it your peroga tive
Verse 4:
Gtr. 2 (plays riff A throughout verse)
Gtr. 1
Time and time again it seems
We’re always somewhere in between
And that’s the truth
It’s in the way we li ve
Chorus:
Gtr. 2 (arpeggiate the chords-mess with the 1st 3 strings)
Gtr. 1
Ray, ray, rain
If you feel the same
Give me a si – gn
We’re running out of time
Gtr. 2 (let ring)
////////


e---x--0--2--3--2--0--x--0--2------x--0--2--3--2--0--3--0--2------
B---3--------3--------3-----3------3--------3--------3-----3------
G---2--------2--------2-----2------2--------2--------2-----2------
D---0--------0--------0-----0------0--------0--------0-----0------
A---0-----------------0------------0-----------------0------------
E-----------------------------------------------------------------

Gtr. 1

Verse 5:
Gtr. 2 (plays riff A throughout verse)
Gtr. 1
Spiders, snakes, and lizard heads
Tell the tale that we’ll all be dead
And don’t you know
In my fanta – sies
Verse 6:
Gtr. 2 (plays riff A throughout verse)
Gtr. 1
Fading on the tender neath(?)
What we are is what we breathe
Insultingly
With your jealous ha – te(?)
Chorus:
Gtr. 2 (arpeggiate the chords)
Gtr. 1
Ray, ray, rain
If you feel the same
Give me a si – gn
Give me a sign
Ray, ray, rain
So you feel the same
It’s written in that
I can’t wait another day
Gtr. 1 only
And no it’s not okay
Explain yourself and say
Now no one ever said that life was fair
G(barre) C
At six times in a row
G(barre) C
The winner starts to go
Walking up and down the builder’s square(?)
G(barre) C
Right down from the start
G(barre) C
And right down from the heart
Finding words that no one thought were there
Chorus:
Gtr. 2 (arpeggiate the chords)
Gtr. 1
Ray, ray, rain
If you feel the same
Give me a si – gn
Give me a sign
Ray, ray, rain
So you feel the same
It’s written in that
I can’t wait another day
Gtr. 2 (let ring)
///


e---x--0--2--3--2--0--x--0--x------x--0--2---------------------------------
B---3--------3--------3-----3------3---------------------------------------
G---2--------2--------2-----2------2---------------------------------------
D---0--------0--------0-----0------0--------------------2----0----0--------
A---0-----------------0------------0--------0--3--2--0---------------------
E--------------------------------------------------------------------------

Gtr. 1

Chords Used:
G Cadd9 Cmaj7 G(barre)
oo x o x ooo
IIIIII IIIIII IIIIII III – 3
IIIII IIIII IIIII IIIII
III III IIIII IIII
xxx xxx xxo x o o
IIIII IIIII – 3 IIIIII IIIII III
IIIIII IIIIII IIII IIIII IIIII
IIII IIII IIIII IIIII IIII
xnot played
oopen
Bass Line:
Intro:


G---7---9---11---12--11--9---7---9---11--------
D----------------------------------------------
A----------------------------------------------
E----------------------------------------------

Verses:
Moving on a pale moonlight


G----------------------------------------------
D----------------------------------------------
A---3--2--0--0--3--3--2--0---0-----------------
E----------------------------------------------

Staring at the tail lights of the


G----------------------------------------------
D---5---5---5/12---12---10---9----------------
A----------------------------------------------
E----------------------------------------------

Truck that rips the road apart


G----------------------------------------------
D----------------------------------------------
A---2--2--0--0--3--3--2--0---0-----------------
E----------------------------------------------

In front of me


G----------------------------------------------
D---5---5---5--0--5---5--0---------------------
A----------------------------------------------
E----------------------------------------------

Chorus:
Ray, ray, rain, if you feel the same


G---7----9----11--12--11--9---12---11--9------
D---------------------------------------------
A---------------------------------------------
E---------------------------------------------

give me a sign, we’re running out of time


G---5--7--5--4--2--0--------------------------------
D---------------------3--2--0-----------------------
A------------------------------3--2--0-----0--2-----
E---------------------------------------3-----------

The rest basically follows the root note of the chord
sorry, these lyrics may not be totally correct
gilajon@minna.acc.iit.edu

To play the this songs, including Ray Ray Rain by Bettie Serveert by ukulele, the most crucial basic ukulele chords to learn are C chord, D chord, G chord, and Em chord.
These set you up to play a many of songs, and each of them is easy to master.

Gravatar Image
Like to play Ukulele and Sudoku Game

Leave a Reply

Your email address will not be published. Required fields are marked *