Reach by Eyes Set to Kill Ukulele Chords

Posted on

If you are looking for Reach ukulele chords, you already visit to the best site.
You can play versatile instrument Reach using ukulele or guitar.
This song by Eyes Set to Kill can also be played by that instruments.
=

Reach chords has rhythm and included in Reach (2008) album.
You can also get another musical style, including jazz ukulele chords, country music ukulele chords, pop ukulele chords, world music ukulele chords, and rock ukulele chords here.

Reach by Eyes Set to Kill Ukulele Chords


Eyes Set To Kill

Key: D

Tuning: Standard EADGBe

Chords used:
Bm – x24432
G – 320033
D – xx0232
A – x02220
F#/Bb – x143xx


Intro: Bm--G--D--A-F#/Bb

Guitar 2: Very fast!!!


e|---------------------------------17-14------------------------|
B|-14------15------14--------------------15--14-14-15-----------|
G|-------------------------14--------------------------14-14-16-|
D|----0-0-----0-0-----0-0-----0-0-------------------------------| x2
A|--------------------------------------------------------------|
E|--------------------------------------------------------------|
e|-14------------------12------------------------------12-14-15-14----|
B|----15-15--15-----------15-15--14----15--14-15----15-------------15-|
G|--------------14-14---------------14-----------14-------------------|
D|--------------------------------------------------------------------|
A|--------------------------------------------------------------------|
E|--------------------------------------------------------------------|
e|-14------------------12---------------------------|
B|----15-15--15-----------15-15--14----15--14-15----|
G|--------------14-14---------------14-----------13-|
D|--------------------------------------------------|
A|--------------------------------------------------|
E|--------------------------------------------------|

Chorus 1:
Hush, don’t speak a word
about the dreams that I live for
It hurts to reach you [F#/Bb]when I'm down
Don’t speak again I’m
still waiting for my turn
It hurts to reach you [F#/Bb]when I’m down

Verse 1:
My dreams are growing into
Frustrations when I hear your voice
(Feeding me till I'm choking)
(Feeding me till I'm choking)
My ears are ringing louder
Repeating words that bring me down
(Ringing, my ears are bleeding)
(Ringing, my ears are bleeding)

Refrain:
So hold your breath and spare me
(The pointless conversation
(I’m running out of patience)
Don’t blame me for trying to (reach)

Guitar 2:


e|-2-------------2-----------------|
B|---0-3-2---------0-3-2-----------|
G|---------2-4-----------2-4-----0-|
D|-------------2-------------2-4---| x4
A|---------------------------------|
E|---------------------------------|

(Repeat Chorus)

Verse 2:
As you are moving forward
I feel as if I can’t catch up
(Trying so hard to reach you)
(Trying so hard to reach you)
I’m stuck here at the bottom
You’re too high up to come back down
(Trying so hard to reach you)
(Trying so hard to reach you)

(Repeat Refrain and Chorus 1)

Interlude: G–Bm–G

Bridge:
Silence your harsh words my dear
My ears are ringing of this
I can’t stop thinking of it
(I try to reach you but I fall)
(Repeat x4)

Chorus 2:
Hush, don’t speak a word
about the dreams that I live for
It hurts to reach you when I'm down
Don’t speak again I’m
still waiting for my turn
A G(hold)
It hurts to reach you when I’m down

To play the this songs, including Reach by Eyes Set to Kill by ukulele, the most important basic ukulele chords to learn are C chord, D chord, G chord, and Em chord.
These set you up to play a ton of songs, and each of them is easy to learn.

Leave a Reply

Your email address will not be published.